  0
SECTION
  2
HEADER
  9
$ACADVER
  1
AC1015
  9
$ACADMAINTVER
 70
     6
  9
$DWGCODEPAGE
  3
ANSI_1252
  9
$INSBASE
 10
0.0
 20
0.0
 30
0.0
  9
$EXTMIN
 10
40.8583485517
 20
37.91383589362994
 30
0.0
  9
$EXTMAX
 10
389.6663428896309
 20
396.1754368485007
 30
0.0
  9
$LIMMIN
 10
-12.13536369018448
 20
50.87192941388859
  9
$LIMMAX
 10
151.4073452595039
 20
301.0277177744316
  9
$ORTHOMODE
 70
     1
  9
$REGENMODE
 70
     1
  9
$FILLMODE
 70
     1
  9
$QTEXTMODE
 70
     0
  9
$MIRRTEXT
 70
     1
  9
$LTSCALE
 40
32.67
  9
$ATTMODE
 70
     1
  9
$TEXTSIZE
 40
0.2
  9
$TRACEWID
 40
0.05
  9
$TEXTSTYLE
  7
STANDARD
  9
$CLAYER
  8
0
  9
$CELTYPE
  6
BYLAYER
  9
$CECOLOR
 62
   256
  9
$CELTSCALE
 40
1.0
  9
$DISPSILH
 70
     0
  9
$DIMSCALE
 40
1.0
  9
$DIMASZ
 40
3.5
  9
$DIMEXO
 40
0.0
  9
$DIMDLI
 40
22.572
  9
$DIMRND
 40
0.0
  9
$DIMDLE
 40
0.0
  9
$DIMEXE
 40
1.0
  9
$DIMTP
 40
0.01
  9
$DIMTM
 40
0.01
  9
$DIMTXT
 40
2.5
  9
$DIMCEN
 40
5.346
  9
$DIMTSZ
 40
0.0
  9
$DIMTOL
 70
     1
  9
$DIMLIM
 70
     0
  9
$DIMTIH
 70
     1
  9
$DIMTOH
 70
     1
  9
$DIMSE1
 70
     0
  9
$DIMSE2
 70
     0
  9
$DIMTAD
 70
     0
  9
$DIMZIN
 70
     0
  9
$DIMBLK
  1
FILLED
  9
$DIMASO
 70
     1
  9
$DIMSHO
 70
     1
  9
$DIMPOST
  1

  9
$DIMAPOST
  1

  9
$DIMALT
 70
     0
  9
$DIMALTD
 70
     2
  9
$DIMALTF
 40
25.4
  9
$DIMLFAC
 40
1.0
  9
$DIMTOFL
 70
     0
  9
$DIMTVP
 40
0.0
  9
$DIMTIX
 70
     0
  9
$DIMSOXD
 70
     0
  9
$DIMSAH
 70
     0
  9
$DIMBLK1
  1

  9
$DIMBLK2
  1

  9
$DIMSTYLE
  2
STANDARD
  9
$DIMCLRD
 70
     0
  9
$DIMCLRE
 70
     0
  9
$DIMCLRT
 70
     0
  9
$DIMTFAC
 40
1.0
  9
$DIMGAP
 40
0.625
  9
$DIMJUST
 70
     0
  9
$DIMSD1
 70
     0
  9
$DIMSD2
 70
     0
  9
$DIMTOLJ
 70
     1
  9
$DIMTZIN
 70
     0
  9
$DIMALTZ
 70
     0
  9
$DIMALTTZ
 70
     0
  9
$DIMUPT
 70
     0
  9
$DIMDEC
 70
     4
  9
$DIMTDEC
 70
     4
  9
$DIMALTU
 70
     2
  9
$DIMALTTD
 70
     2
  9
$DIMTXSTY
  7
STANDARD
  9
$DIMAUNIT
 70
     0
  9
$DIMADEC
 70
     0
  9
$DIMALTRND
 40
0.0
  9
$DIMAZIN
 70
     0
  9
$DIMDSEP
 70
    44
  9
$DIMATFIT
 70
     3
  9
$DIMFRAC
 70
     0
  9
$DIMLDRBLK
  1

  9
$DIMLUNIT
 70
     2
  9
$DIMLWD
 70
    -2
  9
$DIMLWE
 70
    -2
  9
$DIMTMOVE
 70
     0
  9
$LUNITS
 70
     2
  9
$LUPREC
 70
     4
  9
$SKETCHINC
 40
0.1
  9
$FILLETRAD
 40
0.5
  9
$AUNITS
 70
     0
  9
$AUPREC
 70
     0
  9
$MENU
  1
.
  9
$ELEVATION
 40
0.0
  9
$PELEVATION
 40
0.0
  9
$THICKNESS
 40
0.0
  9
$LIMCHECK
 70
     0
  9
$CHAMFERA
 40
0.0
  9
$CHAMFERB
 40
0.0
  9
$CHAMFERC
 40
0.0
  9
$CHAMFERD
 40
0.0
  9
$SKPOLY
 70
     0
  9
$TDCREATE
 40
2447893.083333333
  9
$TDUCREATE
 40
0.0
  9
$TDUPDATE
 40
2457959.659110498
  9
$TDUUPDATE
 40
2457959.575777164
  9
$TDINDWG
 40
0.1129826968
  9
$TDUSRTIMER
 40
2457959.575044815
  9
$USRTIMER
 70
     1
  9
$ANGBASE
 50
0.0
  9
$ANGDIR
 70
     0
  9
$PDMODE
 70
     3
  9
$PDSIZE
 40
6.0
  9
$PLINEWID
 40
0.0
  9
$SPLFRAME
 70
     0
  9
$SPLINETYPE
 70
     6
  9
$SPLINESEGS
 70
     8
  9
$HANDSEED
  5
854A
  9
$SURFTAB1
 70
     6
  9
$SURFTAB2
 70
     6
  9
$SURFTYPE
 70
     6
  9
$SURFU
 70
     6
  9
$SURFV
 70
     6
  9
$UCSBASE
  2

  9
$UCSNAME
  2

  9
$UCSORG
 10
0.0
 20
0.0
 30
0.0
  9
$UCSXDIR
 10
1.0
 20
0.0
 30
0.0
  9
$UCSYDIR
 10
0.0
 20
1.0
 30
0.0
  9
$UCSORTHOREF
  2

  9
$UCSORTHOVIEW
 70
     0
  9
$UCSORGTOP
 10
0.0
 20
0.0
 30
0.0
  9
$UCSORGBOTTOM
 10
0.0
 20
0.0
 30
0.0
  9
$UCSORGLEFT
 10
0.0
 20
0.0
 30
0.0
  9
$UCSORGRIGHT
 10
0.0
 20
0.0
 30
0.0
  9
$UCSORGFRONT
 10
0.0
 20
0.0
 30
0.0
  9
$UCSORGBACK
 10
0.0
 20
0.0
 30
0.0
  9
$PUCSBASE
  2

  9
$PUCSNAME
  2

  9
$PUCSORG
 10
0.0
 20
0.0
 30
0.0
  9
$PUCSXDIR
 10
1.0
 20
0.0
 30
0.0
  9
$PUCSYDIR
 10
0.0
 20
1.0
 30
0.0
  9
$PUCSORTHOREF
  2

  9
$PUCSORTHOVIEW
 70
     0
  9
$PUCSORGTOP
 10
0.0
 20
0.0
 30
0.0
  9
$PUCSORGBOTTOM
 10
0.0
 20
0.0
 30
0.0
  9
$PUCSORGLEFT
 10
0.0
 20
0.0
 30
0.0
  9
$PUCSORGRIGHT
 10
0.0
 20
0.0
 30
0.0
  9
$PUCSORGFRONT
 10
0.0
 20
0.0
 30
0.0
  9
$PUCSORGBACK
 10
0.0
 20
0.0
 30
0.0
  9
$USERI1
 70
     0
  9
$USERI2
 70
     0
  9
$USERI3
 70
     0
  9
$USERI4
 70
     0
  9
$USERI5
 70
     0
  9
$USERR1
 40
0.0
  9
$USERR2
 40
0.0
  9
$USERR3
 40
0.0
  9
$USERR4
 40
0.0
  9
$USERR5
 40
0.0
  9
$WORLDVIEW
 70
     1
  9
$SHADEDGE
 70
     3
  9
$SHADEDIF
 70
    70
  9
$TILEMODE
 70
     1
  9
$MAXACTVP
 70
    64
  9
$PINSBASE
 10
0.0
 20
0.0
 30
0.0
  9
$PLIMCHECK
 70
     0
  9
$PEXTMIN
 10
0.0
 20
0.0
 30
0.0
  9
$PEXTMAX
 10
0.0
 20
0.0
 30
0.0
  9
$PLIMMIN
 10
0.0
 20
0.0
  9
$PLIMMAX
 10
594.0
 20
420.0
  9
$UNITMODE
 70
     0
  9
$VISRETAIN
 70
     1
  9
$PLINEGEN
 70
     0
  9
$PSLTSCALE
 70
     0
  9
$TREEDEPTH
 70
  3020
  9
$CMLSTYLE
  2

  9
$CMLJUST
 70
     0
  9
$CMLSCALE
 40
1.0
  9
$PROXYGRAPHICS
 70
     1
  9
$MEASUREMENT
 70
     1
  9
$CELWEIGHT
370
    -1
  9
$ENDCAPS
280
     0
  9
$JOINSTYLE
280
     0
  9
$LWDISPLAY
290
     0
  9
$INSUNITS
 70
     4
  9
$HYPERLINKBASE
  1

  9
$STYLESHEET
  1

  9
$XEDIT
290
     1
  9
$CEPSNTYPE
380
     0
  9
$PSTYLEMODE
290
     1
  9
$FINGERPRINTGUID
  2
{7B5FA0A4-6C00-419A-93F3-C56E662CF1F7}
  9
$VERSIONGUID
  2
{FAEB1C32-E019-11D5-929B-00C0DF256EC4}
  9
$EXTNAMES
290
     1
  9
$PSVPSCALE
 40
0.0
  9
$OLESTARTUP
290
     0
  0
ENDSEC
  0
SECTION
  2
CLASSES
  0
CLASS
  1
ACDBDICTIONARYWDFLT
  2
AcDbDictionaryWithDefault
  3
ObjectDBX Classes
 90
        0
280
     0
281
     0
  0
CLASS
  1
ACDBPLACEHOLDER
  2
AcDbPlaceHolder
  3
ObjectDBX Classes
 90
        0
280
     0
281
     0
  0
CLASS
  1
LAYOUT
  2
AcDbLayout
  3
ObjectDBX Classes
 90
        0
280
     0
281
     0
  0
CLASS
  1
SCALE
  2
AcDbScale
  3
ObjectDBX Classes
 90
     1153
280
     0
281
     0
  0
CLASS
  1
VISUALSTYLE
  2
AcDbVisualStyle
  3
ObjectDBX Classes
 90
     4095
280
     0
281
     0
  0
CLASS
  1
MATERIAL
  2
AcDbMaterial
  3
ObjectDBX Classes
 90
     1153
280
     0
281
     0
  0
CLASS
  1
TABLESTYLE
  2
AcDbTableStyle
  3
ObjectDBX Classes
 90
     4095
280
     0
281
     0
  0
CLASS
  1
SUN
  2
AcDbSun
  3
SCENEOE
 90
     1153
280
     0
281
     0
  0
CLASS
  1
RASTERVARIABLES
  2
AcDbRasterVariables
  3
ISM
 90
        0
280
     0
281
     0
  0
CLASS
  1
DIMASSOC
  2
AcDbDimAssoc
  3
"AcDbDimAssoc|Product Desc:     AcDim ARX App For Dimension|Company:          Autodesk, Inc.|WEB Address:      www.autodesk.com"
 90
        0
280
     0
281
     0
  0
CLASS
  1
DICTIONARYVAR
  2
AcDbDictionaryVar
  3
ObjectDBX Classes
 90
        0
280
     0
281
     0
  0
CLASS
  1
SORTENTSTABLE
  2
AcDbSortentsTable
  3
ObjectDBX Classes
 90
        0
280
     0
281
     0
  0
ENDSEC
  0
SECTION
  2
TABLES
  0
TABLE
  2
VPORT
  5
8
330
0
100
AcDbSymbolTable
 70
     1
  0
VPORT
  5
1F4
330
8
100
AcDbSymbolTableRecord
100
AcDbViewportTableRecord
  2
*ACTIVE
 70
     0
 10
0.0
 20
0.0
 11
1.0
 21
1.0
 12
127.4677052981185
 22
114.6213077380269
 13
0.0
 23
0.0
 14
1.0
 24
1.0
 15
0.0
 25
0.0
 16
0.0
 26
0.0
 36
1.0
 17
0.0
 27
0.0
 37
0.0
 40
465.3435632943436
 41
1.86242774566474
 42
50.0
 43
0.0
 44
0.0
 50
0.0
 51
0.0
 71
    16
 72
   100
 73
     1
 74
     1
 75
     0
 76
     0
 77
     0
 78
     0
281
     0
 65
     1
110
0.0
120
0.0
130
0.0
111
1.0
121
0.0
131
0.0
112
0.0
122
1.0
132
0.0
 79
     0
146
0.0
  0
ENDTAB
  0
TABLE
  2
LTYPE
  5
5
330
0
100
AcDbSymbolTable
 70
     2
  0
LTYPE
  5
14
330
5
100
AcDbSymbolTableRecord
100
AcDbLinetypeTableRecord
  2
BYBLOCK
 70
     0
  3

 72
    65
 73
     0
 40
0.0
  0
LTYPE
  5
15
330
5
100
AcDbSymbolTableRecord
100
AcDbLinetypeTableRecord
  2
BYLAYER
 70
     0
  3

 72
    65
 73
     0
 40
0.0
  0
LTYPE
  5
16
330
5
100
AcDbSymbolTableRecord
100
AcDbLinetypeTableRecord
  2
CONTINUOUS
 70
     0
  3
Solid line
 72
    65
 73
     0
 40
0.0
  0
LTYPE
  5
1F5
330
5
100
AcDbSymbolTableRecord
100
AcDbLinetypeTableRecord
  2
CENTER
 70
     0
  3
____ _ ____ _ ____ _ ____ _ ____ _ ____ _ ____
 72
    65
 73
     4
 40
0.6
 49
0.375
 74
     0
 49
-0.075
 74
     0
 49
0.075
 74
     0
 49
-0.075
 74
     0
  0
ENDTAB
  0
TABLE
  2
LAYER
  5
2
330
0
100
AcDbSymbolTable
 70
     4
  0
LAYER
  5
10
330
2
100
AcDbSymbolTableRecord
100
AcDbLayerTableRecord
  2
0
 70
     0
 62
     7
  6
CONTINUOUS
370
    -3
390
F
  0
LAYER
  5
204
330
2
100
AcDbSymbolTableRecord
100
AcDbLayerTableRecord
  2
02___PRT_ALL_AXES
 70
     0
 62
     7
  6
CONTINUOUS
370
    -3
390
F
  0
LAYER
  5
221
330
2
100
AcDbSymbolTableRecord
100
AcDbLayerTableRecord
  2
ALL_DETAIL_ITEM
 70
     0
 62
     7
  6
CONTINUOUS
370
    -3
390
F
  0
LAYER
  5
7BCC
330
2
100
AcDbSymbolTableRecord
100
AcDbLayerTableRecord
  2
ALL_ASSEM_MEMBER
 70
     0
 62
     7
  6
CONTINUOUS
370
    -3
390
F
  0
ENDTAB
  0
TABLE
  2
STYLE
  5
3
330
0
100
AcDbSymbolTable
 70
     1
  0
STYLE
  5
11
330
3
100
AcDbSymbolTableRecord
100
AcDbTextStyleTableRecord
  2
STANDARD
 70
     0
 40
0.0
 41
0.6
 50
0.0
 71
     0
 42
0.2
  3
txt
  4

  0
ENDTAB
  0
TABLE
  2
VIEW
  5
6
330
0
100
AcDbSymbolTable
 70
     0
  0
ENDTAB
  0
TABLE
  2
UCS
  5
7
330
0
100
AcDbSymbolTable
 70
     0
  0
ENDTAB
  0
TABLE
  2
APPID
  5
9
330
0
100
AcDbSymbolTable
 70
     3
  0
APPID
  5
23A
330
9
100
AcDbSymbolTableRecord
100
AcDbRegAppTableRecord
  2
ACAD
 70
     0
  0
APPID
  5
7265
330
9
100
AcDbSymbolTableRecord
100
AcDbRegAppTableRecord
  2
ACAD_NAV_VCDISPLAY
 70
     0
  0
APPID
  5
72FB
330
9
100
AcDbSymbolTableRecord
100
AcDbRegAppTableRecord
  2
ACAD_DSTYLE_DIMRADIAL_EXTENSION
 70
     0
  0
ENDTAB
  0
TABLE
  2
DIMSTYLE
  5
A
330
0
100
AcDbSymbolTable
 70
     1
100
AcDbDimStyleTable
  0
DIMSTYLE
105
297
330
A
100
AcDbSymbolTableRecord
100
AcDbDimStyleTableRecord
  2
STANDARD
 70
     0
 41
3.5
 42
0.0
 44
1.0
 47
0.01
 48
0.01
 71
     1
 73
     0
 74
     0
 77
     1
 78
     8
140
2.5
147
0.625
178
     0
271
     2
272
     2
278
    44
284
     8
340
11
341
23D
342
23D
343
23D
344
23D
  0
ENDTAB
  0
TABLE
  2
BLOCK_RECORD
  5
1
330
0
100
AcDbSymbolTable
 70
     1
  0
BLOCK_RECORD
  5
23B
330
1
100
AcDbSymbolTableRecord
100
AcDbBlockTableRecord
  2
*Model_Space
340
70CB
  0
BLOCK_RECORD
  5
23C
330
1
100
AcDbSymbolTableRecord
100
AcDbBlockTableRecord
  2
*Paper_Space
340
70CC
  0
BLOCK_RECORD
  5
23D
330
1
100
AcDbSymbolTableRecord
100
AcDbBlockTableRecord
  2
_FILLED
340
0
  0
ENDTAB
  0
ENDSEC
  0
SECTION
  2
BLOCKS
  0
BLOCK
  5
20
330
23B
100
AcDbEntity
  8
0
100
AcDbBlockBegin
  2
*Model_Space
 70
     0
 10
0.0
 20
0.0
 30
0.0
  3
*Model_Space
  1
*Model_Space
  0
ENDBLK
  5
21
330
23B
100
AcDbEntity
  8
0
100
AcDbBlockEnd
  0
BLOCK
  5
1C
330
23C
100
AcDbEntity
 67
     1
  8
0
100
AcDbBlockBegin
  2
*Paper_Space
 70
     0
 10
0.0
 20
0.0
 30
0.0
  3
*Paper_Space
  1
*Paper_Space
  0
ENDBLK
  5
1D
330
23C
100
AcDbEntity
 67
     1
  8
0
100
AcDbBlockEnd
  0
BLOCK
  5
37E
330
23D
100
AcDbEntity
  8
0
100
AcDbBlockBegin
  2
_FILLED
 70
     0
 10
0.0
 20
0.0
 30
0.0
  3
_FILLED
  1
_FILLED
  0
SOLID
  5
37F
330
23D
100
AcDbEntity
  8
0
  6
ByBlock
 62
     0
100
AcDbTrace
 10
0.0
 20
0.0
 30
0.0
 11
-1.0
 21
0.2142857143
 31
0.0
 12
-1.0
 22
-0.2142857143
 32
0.0
 13
-1.0
 23
-0.2142857143
 33
0.0
  0
ENDBLK
  5
380
330
23D
100
AcDbEntity
  8
0
  6
ByBlock
 62
     0
100
AcDbBlockEnd
  0
ENDSEC
  0
SECTION
  2
ENTITIES
  0
HATCH
  5
559
330
23B
100
AcDbEntity
  8
0
 62
     2
100
AcDbHatch
 10
0.0
 20
0.0
 30
0.0
210
0.0
220
0.0
230
1.0
  2
default__8
 70
     0
 71
     0
 91
        1
 92
        1
 93
        4
 72
     1
 10
301.4277872138
 20
344.5763928723
 11
303.8378632553
 21
344.5763928723
 72
     1
 10
303.8378632553
 20
343.2963928723
 11
303.8378632553
 21
344.5763928723
 72
     1
 10
301.4277872138
 20
343.2963928723
 11
303.8378632553
 21
343.2963928723
 72
     1
 10
301.4277872138
 20
343.2963928723
 11
301.4277872138
 21
344.5763928723
 97
        0
 75
     0
 76
     0
 52
45.0
 41
11.88
 77
     0
 78
     1
 53
45.0
 43
0.0
 44
0.0
 45
-8.4004285605
 46
8.4004285605
 79
     0
 98
        1
 10
0.0
 20
0.0
  0
HATCH
  5
55A
330
23B
100
AcDbEntity
  8
0
 62
     2
100
AcDbHatch
 10
0.0
 20
0.0
 30
0.0
210
0.0
220
0.0
230
1.0
  2
default__9
 70
     0
 71
     0
 91
        1
 92
        1
 93
        4
 72
     1
 10
278.0932634346
 20
344.5763928723
 11
280.5033394762
 21
344.5763928723
 72
     1
 10
280.5033394762
 20
343.2963928723
 11
280.5033394762
 21
344.5763928723
 72
     1
 10
278.0932634346
 20
343.2963928723
 11
280.5033394762
 21
343.2963928723
 72
     1
 10
278.0932634346
 20
343.2963928723
 11
278.0932634346
 21
344.5763928723
 97
        0
 75
     0
 76
     0
 52
45.0
 41
11.88
 77
     0
 78
     1
 53
45.0
 43
0.0
 44
0.0
 45
-8.4004285605
 46
8.4004285605
 79
     0
 98
        1
 10
0.0
 20
0.0
  0
HATCH
  5
560
330
23B
100
AcDbEntity
  8
0
 62
     2
100
AcDbHatch
 10
0.0
 20
0.0
 30
0.0
210
0.0
220
0.0
230
1.0
  2
default__15
 70
     0
 71
     0
 91
        1
 92
        2
 72
     0
 73
     0
 93
      158
 10
222.565563345
 20
341.2763928723
 10
222.565563345
 20
342.8763928723
 10
222.165563345
 20
342.8763928723
 10
222.565563345
 20
342.8763928723
 10
222.165563345
 20
342.8763928723
 10
222.165563345
 20
343.0363928723
 10
222.165563345
 20
343.0363928723
 10
222.1655885215
 20
343.0386366787
 10
222.1656640383
 20
343.0408793553
 10
222.1657898575
 20
343.0431197729
 10
222.1659659156
 20
343.0453568032
 10
222.166192124
 20
343.0475893199
 10
222.1664683688
 20
343.0498161989
 10
222.1667945109
 20
343.0520363188
 10
222.1671703861
 20
343.0542485618
 10
222.1675958051
 20
343.0564518139
 10
222.1680705538
 20
343.0586449657
 10
222.1685943929
 20
343.0608269129
 10
222.1691670589
 20
343.0629965569
 10
222.1697882633
 20
343.065152805
 10
222.1704576933
 20
343.0672945717
 10
222.1711750119
 20
343.0694207785
 10
222.1719398579
 20
343.0715303547
 10
222.1727518461
 20
343.0736222381
 10
222.1736105677
 20
343.0756953755
 10
222.1745155903
 20
343.0777487228
 10
222.1754664582
 20
343.0797812462
 10
222.1764626926
 20
343.0817919223
 10
222.1775037918
 20
343.0837797385
 10
222.1785892317
 20
343.0857436941
 10
222.1797184656
 20
343.0876828
 10
222.1808909251
 20
343.0895960799
 10
222.1821060196
 20
343.0914825704
 10
222.1833631374
 20
343.0933413216
 10
222.1846616455
 20
343.0951713975
 10
222.1860008901
 20
343.0969718767
 10
222.1873801967
 20
343.0987418525
 10
222.1887988709
 20
343.1004804337
 10
222.1902561984
 20
343.1021867449
 10
222.1917514452
 20
343.1038599269
 10
222.1932838586
 20
343.1054991372
 10
222.1948526669
 20
343.1071035504
 10
222.1964570801
 20
343.1086723587
 10
222.1980962904
 20
343.110204772
 10
222.1997694724
 20
343.1117000189
 10
222.2014757836
 20
343.1131573463
 10
222.2032143648
 20
343.1145760205
 10
222.2049843406
 20
343.1159553272
 10
222.2067848197
 20
343.1172945717
 10
222.2086148957
 20
343.1185930798
 10
222.2104736468
 20
343.1198501977
 10
222.2123601373
 20
343.1210652922
 10
222.2142734172
 20
343.1222377517
 10
222.2162125232
 20
343.1233669856
 10
222.2181764787
 20
343.1244524255
 10
222.220164295
 20
343.1254935247
 10
222.2221749711
 20
343.1264897591
 10
222.2242074945
 20
343.127440627
 10
222.2262608418
 20
343.1283456496
 10
222.2283339791
 20
343.1292043711
 10
222.2304258626
 20
343.1300163594
 10
222.2325354388
 20
343.1307812053
 10
222.2346616455
 20
343.1314985239
 10
222.2368034122
 20
343.132167954
 10
222.2389596604
 20
343.1327891584
 10
222.2411293044
 20
343.1333618243
 10
222.2433112516
 20
343.1338856635
 10
222.2455044034
 20
343.1343604121
 10
222.2477076555
 20
343.1347858312
 10
222.2499198985
 20
343.1351617064
 10
222.2521400184
 20
343.1354878485
 10
222.2543668974
 20
343.1357640933
 10
222.2565994141
 20
343.1359903017
 10
222.2588364444
 20
343.1361663598
 10
222.2610768619
 20
343.136292179
 10
222.2633195385
 20
343.1363676958
 10
222.265563345
 20
343.1363928723
 10
222.265563345
 20
343.1363928723
 10
223.665563345
 20
343.1363928723
 10
223.765563345
 20
343.0363928723
 10
223.7655381685
 20
343.0386366787
 10
223.7654626516
 20
343.0408793553
 10
223.7653368325
 20
343.0431197729
 10
223.7651607744
 20
343.0453568032
 10
223.764934566
 20
343.0475893199
 10
223.7646583212
 20
343.0498161989
 10
223.764332179
 20
343.0520363188
 10
223.7639563038
 20
343.0542485618
 10
223.7635308848
 20
343.0564518139
 10
223.7630561362
 20
343.0586449657
 10
223.762532297
 20
343.0608269129
 10
223.761959631
 20
343.0629965569
 10
223.7613384266
 20
343.065152805
 10
223.7606689966
 20
343.0672945717
 10
223.759951678
 20
343.0694207785
 10
223.759186832
 20
343.0715303547
 10
223.7583748438
 20
343.0736222381
 10
223.7575161222
 20
343.0756953755
 10
223.7566110996
 20
343.0777487228
 10
223.7556602318
 20
343.0797812462
 10
223.7546639974
 20
343.0817919223
 10
223.7536228982
 20
343.0837797385
 10
223.7525374583
 20
343.0857436941
 10
223.7514082243
 20
343.0876828
 10
223.7502357649
 20
343.0895960799
 10
223.7490206703
 20
343.0914825704
 10
223.7477635525
 20
343.0933413216
 10
223.7464650444
 20
343.0951713975
 10
223.7451257999
 20
343.0969718767
 10
223.7437464932
 20
343.0987418525
 10
223.742327819
 20
343.1004804337
 10
223.7408704916
 20
343.1021867449
 10
223.7393752447
 20
343.1038599269
 10
223.7378428314
 20
343.1054991372
 10
223.7362740231
 20
343.1071035504
 10
223.7346696099
 20
343.1086723587
 10
223.7330303996
 20
343.110204772
 10
223.7313572176
 20
343.1117000189
 10
223.7296509064
 20
343.1131573463
 10
223.7279123252
 20
343.1145760205
 10
223.7261423494
 20
343.1159553272
 10
223.7243418702
 20
343.1172945717
 10
223.7225117943
 20
343.1185930798
 10
223.7206530431
 20
343.1198501977
 10
223.7187665526
 20
343.1210652922
 10
223.7168532727
 20
343.1222377517
 10
223.7149141668
 20
343.1233669856
 10
223.7129502112
 20
343.1244524255
 10
223.7109623949
 20
343.1254935247
 10
223.7089517189
 20
343.1264897591
 10
223.7069191955
 20
343.127440627
 10
223.7048658481
 20
343.1283456496
 10
223.7027927108
 20
343.1292043711
 10
223.7007008274
 20
343.1300163594
 10
223.6985912512
 20
343.1307812053
 10
223.6964650444
 20
343.1314985239
 10
223.6943232777
 20
343.132167954
 10
223.6921670295
 20
343.1327891584
 10
223.6899973856
 20
343.1333618243
 10
223.6878154384
 20
343.1338856635
 10
223.6856222866
 20
343.1343604121
 10
223.6834190345
 20
343.1347858312
 10
223.6812067915
 20
343.1351617064
 10
223.6789866716
 20
343.1354878485
 10
223.6767597926
 20
343.1357640933
 10
223.6745272759
 20
343.1359903017
 10
223.6722902455
 20
343.1361663598
 10
223.670049828
 20
343.136292179
 10
223.6678071514
 20
343.1363676958
 10
223.665563345
 20
343.1363928723
 10
223.765563345
 20
342.8763928723
 10
223.765563345
 20
343.0363928723
 10
223.365563345
 20
342.8763928723
 10
223.765563345
 20
342.8763928723
 10
223.365563345
 20
341.2763928723
 10
223.365563345
 20
342.8763928723
 10
222.565563345
 20
341.2763928723
 10
223.365563345
 20
341.2763928723
 97
        0
 75
     0
 76
     0
 52
45.0
 41
11.88
 77
     0
 78
     1
 53
45.0
 43
0.0
 44
0.0
 45
-8.4004285605
 46
8.4004285605
 79
     0
 98
        1
 10
0.0
 20
0.0
  0
HATCH
  5
561
330
23B
100
AcDbEntity
  8
0
 62
     2
100
AcDbHatch
 10
0.0
 20
0.0
 30
0.0
210
0.0
220
0.0
230
1.0
  2
default__16
 70
     0
 71
     0
 91
        1
 92
        2
 72
     0
 73
     0
 93
      158
 10
358.565563345
 20
263.8763928723
 10
358.565563345
 20
262.2763928723
 10
358.565563345
 20
263.8763928723
 10
359.365563345
 20
263.8763928723
 10
359.365563345
 20
263.8763928723
 10
359.365563345
 20
262.2763928723
 10
359.365563345
 20
262.2763928723
 10
359.765563345
 20
262.2763928723
 10
359.765563345
 20
262.2763928723
 10
359.765563345
 20
262.1163928723
 10
359.765563345
 20
262.1163928723
 10
359.7655381685
 20
262.1141490659
 10
359.7654626516
 20
262.1119063893
 10
359.7653368325
 20
262.1096659717
 10
359.7651607744
 20
262.1074289414
 10
359.764934566
 20
262.1051964247
 10
359.7646583212
 20
262.1029695457
 10
359.764332179
 20
262.1007494258
 10
359.7639563038
 20
262.0985371828
 10
359.7635308848
 20
262.0963339307
 10
359.7630561362
 20
262.0941407789
 10
359.762532297
 20
262.0919588317
 10
359.761959631
 20
262.0897891877
 10
359.7613384266
 20
262.0876329396
 10
359.7606689966
 20
262.0854911729
 10
359.759951678
 20
262.0833649661
 10
359.759186832
 20
262.0812553899
 10
359.7583748438
 20
262.0791635065
 10
359.7575161222
 20
262.0770903691
 10
359.7566110996
 20
262.0750370218
 10
359.7556602318
 20
262.0730044984
 10
359.7546639974
 20
262.0709938223
 10
359.7536228982
 20
262.069006006
 10
359.7525374583
 20
262.0670420505
 10
359.7514082243
 20
262.0651029446
 10
359.7502357649
 20
262.0631896646
 10
359.7490206703
 20
262.0613031742
 10
359.7477635525
 20
262.059444423
 10
359.7464650444
 20
262.0576143471
 10
359.7451257999
 20
262.0558138679
 10
359.7437464932
 20
262.0540438921
 10
359.742327819
 20
262.0523053109
 10
359.7408704916
 20
262.0505989997
 10
359.7393752447
 20
262.0489258177
 10
359.7378428314
 20
262.0472866074
 10
359.7362740231
 20
262.0456821942
 10
359.7346696099
 20
262.0441133859
 10
359.7330303996
 20
262.0425809725
 10
359.7313572176
 20
262.0410857257
 10
359.7296509064
 20
262.0396283983
 10
359.7279123252
 20
262.0382097241
 10
359.7261423494
 20
262.0368304174
 10
359.7243418702
 20
262.0354911729
 10
359.7225117943
 20
262.0341926648
 10
359.7206530431
 20
262.0329355469
 10
359.7187665526
 20
262.0317204524
 10
359.7168532727
 20
262.0305479929
 10
359.7149141668
 20
262.029418759
 10
359.7129502112
 20
262.0283333191
 10
359.7109623949
 20
262.0272922199
 10
359.7089517189
 20
262.0262959855
 10
359.7069191955
 20
262.0253451176
 10
359.7048658481
 20
262.024440095
 10
359.7027927108
 20
262.0235813734
 10
359.7007008274
 20
262.0227693852
 10
359.6985912512
 20
262.0220045393
 10
359.6964650444
 20
262.0212872207
 10
359.6943232777
 20
262.0206177906
 10
359.6921670295
 20
262.0199965862
 10
359.6899973856
 20
262.0194239203
 10
359.6878154384
 20
262.0189000811
 10
359.6856222866
 20
262.0184253325
 10
359.6834190345
 20
262.0179999134
 10
359.6812067915
 20
262.0176240382
 10
359.6789866716
 20
262.0172978961
 10
359.6767597926
 20
262.0170216513
 10
359.6745272759
 20
262.0167954429
 10
359.6722902455
 20
262.0166193848
 10
359.670049828
 20
262.0164935656
 10
359.6678071514
 20
262.0164180488
 10
359.665563345
 20
262.0163928723
 10
358.265563345
 20
262.0163928723
 10
359.665563345
 20
262.0163928723
 10
358.165563345
 20
262.1163928723
 10
358.1655885215
 20
262.1141490659
 10
358.1656640383
 20
262.1119063893
 10
358.1657898575
 20
262.1096659717
 10
358.1659659156
 20
262.1074289414
 10
358.166192124
 20
262.1051964247
 10
358.1664683688
 20
262.1029695457
 10
358.1667945109
 20
262.1007494258
 10
358.1671703861
 20
262.0985371828
 10
358.1675958051
 20
262.0963339307
 10
358.1680705538
 20
262.0941407789
 10
358.1685943929
 20
262.0919588317
 10
358.1691670589
 20
262.0897891877
 10
358.1697882633
 20
262.0876329396
 10
358.1704576933
 20
262.0854911729
 10
358.1711750119
 20
262.0833649661
 10
358.1719398579
 20
262.0812553899
 10
358.1727518461
 20
262.0791635065
 10
358.1736105677
 20
262.0770903691
 10
358.1745155903
 20
262.0750370218
 10
358.1754664582
 20
262.0730044984
 10
358.1764626926
 20
262.0709938223
 10
358.1775037918
 20
262.069006006
 10
358.1785892317
 20
262.0670420505
 10
358.1797184656
 20
262.0651029446
 10
358.1808909251
 20
262.0631896646
 10
358.1821060196
 20
262.0613031742
 10
358.1833631374
 20
262.059444423
 10
358.1846616455
 20
262.0576143471
 10
358.1860008901
 20
262.0558138679
 10
358.1873801967
 20
262.0540438921
 10
358.1887988709
 20
262.0523053109
 10
358.1902561984
 20
262.0505989997
 10
358.1917514452
 20
262.0489258177
 10
358.1932838586
 20
262.0472866074
 10
358.1948526669
 20
262.0456821942
 10
358.1964570801
 20
262.0441133859
 10
358.1980962904
 20
262.0425809725
 10
358.1997694724
 20
262.0410857257
 10
358.2014757836
 20
262.0396283983
 10
358.2032143648
 20
262.0382097241
 10
358.2049843406
 20
262.0368304174
 10
358.2067848197
 20
262.0354911729
 10
358.2086148957
 20
262.0341926648
 10
358.2104736468
 20
262.0329355469
 10
358.2123601373
 20
262.0317204524
 10
358.2142734172
 20
262.0305479929
 10
358.2162125232
 20
262.029418759
 10
358.2181764787
 20
262.0283333191
 10
358.220164295
 20
262.0272922199
 10
358.2221749711
 20
262.0262959855
 10
358.2242074945
 20
262.0253451176
 10
358.2262608418
 20
262.024440095
 10
358.2283339791
 20
262.0235813734
 10
358.2304258626
 20
262.0227693852
 10
358.2325354388
 20
262.0220045393
 10
358.2346616455
 20
262.0212872207
 10
358.2368034122
 20
262.0206177906
 10
358.2389596604
 20
262.0199965862
 10
358.2411293044
 20
262.0194239203
 10
358.2433112516
 20
262.0189000811
 10
358.2455044034
 20
262.0184253325
 10
358.2477076555
 20
262.0179999134
 10
358.2499198985
 20
262.0176240382
 10
358.2521400184
 20
262.0172978961
 10
358.2543668974
 20
262.0170216513
 10
358.2565994141
 20
262.0167954429
 10
358.2588364444
 20
262.0166193848
 10
358.2610768619
 20
262.0164935656
 10
358.2633195385
 20
262.0164180488
 10
358.265563345
 20
262.0163928723
 10
358.165563345
 20
262.2763928723
 10
358.165563345
 20
262.1163928723
 10
358.165563345
 20
262.2763928723
 10
358.565563345
 20
262.2763928723
 97
        0
 75
     0
 76
     0
 52
45.0
 41
11.88
 77
     0
 78
     1
 53
45.0
 43
0.0
 44
0.0
 45
-8.4004285605
 46
8.4004285605
 79
     0
 98
        1
 10
0.0
 20
0.0
  0
HATCH
  5
562
330
23B
100
AcDbEntity
  8
0
 62
     2
100
AcDbHatch
 10
0.0
 20
0.0
 30
0.0
210
0.0
220
0.0
230
1.0
  2
default__17
 70
     0
 71
     0
 91
        1
 92
        2
 72
     0
 73
     0
 93
      194
 10
290.5782650104
 20
343.7763928723
 10
290.5782650104
 20
341.7763928723
 10
290.5782650104
 20
343.7763928723
 10
290.1718379517
 20
343.7763928723
 10
290.1718379517
 20
343.9363928723
 10
290.1718379517
 20
343.7763928723
 10
290.2727430219
 20
344.0363928723
 10
290.2709274012
 20
344.0363767621
 10
290.2691143017
 20
344.0363284326
 10
290.2673033672
 20
344.0362478858
 10
290.2654942413
 20
344.0361351233
 10
290.2636868052
 20
344.0359901657
 10
290.2618818903
 20
344.0358131079
 10
290.2600805659
 20
344.0356040633
 10
290.2582839009
 20
344.0353631455
 10
290.2564928163
 20
344.0350904565
 10
290.2547076406
 20
344.0347860513
 10
290.2529285538
 20
344.0344499735
 10
290.2511557362
 20
344.0340822668
 10
290.2493895056
 20
344.0336830133
 10
290.2476307291
 20
344.0332524506
 10
290.2458804118
 20
344.0327908547
 10
290.2441395583
 20
344.032298502
 10
290.2424090174
 20
344.0317756284
 10
290.2406890146
 20
344.0312223092
 10
290.2389796191
 20
344.0306385793
 10
290.2372809003
 20
344.0300244737
 10
290.2355930872
 20
344.0293800957
 10
290.2339170474
 20
344.0287058213
 10
290.232253808
 20
344.0280020947
 10
290.2306043964
 20
344.0272693601
 10
290.2289696729
 20
344.0265079937
 10
290.227349831
 20
344.0257180998
 10
290.2257448976
 20
344.0248997145
 10
290.2241548991
 20
344.024052874
 10
290.2225800112
 20
344.0231777012
 10
290.2210210037
 20
344.0222746652
 10
290.2194787951
 20
344.0213443219
 10
290.2179543042
 20
344.0203872273
 10
290.2164483144
 20
344.019403863
 10
290.2149610684
 20
344.018394415
 10
290.2134926739
 20
344.017358995
 10
290.2120432385
 20
344.0162977147
 10
290.2106129649
 20
344.0152107584
 10
290.2092024359
 20
344.0140986002
 10
290.2078123293
 20
344.0129617867
 10
290.2064433229
 20
344.0118008646
 10
290.2050960282
 20
344.010616341
 10
290.2037707909
 20
344.009408566
 10
290.2024678903
 20
344.00817785
 10
290.2011876059
 20
344.0069245037
 10
290.1999302326
 20
344.0056488517
 10
290.198696129
 20
344.0043512749
 10
290.1974856693
 20
344.0030321682
 10
290.1962992277
 20
344.0016919266
 10
290.1951371909
 20
344.0003309813
 10
290.1939999945
 20
343.9989499082
 10
290.1928880867
 20
343.9975493195
 10
290.1918019157
 20
343.9961298276
 10
290.1907418755
 20
343.9946919722
 10
290.1897081444
 20
343.9932360039
 10
290.1887008466
 20
343.991762101
 10
290.1877201064
 20
343.9902704415
 10
290.1867661098
 20
343.9887613206
 10
290.1858392894
 20
343.9872355008
 10
290.1849401396
 20
343.9856938614
 10
290.1840691547
 20
343.9841372817
 10
290.1832267486
 20
343.9825665008
 10
290.1824130134
 20
343.9809816968
 10
290.1816279605
 20
343.9793829075
 10
290.1808716014
 20
343.9777701708
 10
290.1801440142
 20
343.9761436879
 10
290.179445543
 20
343.9745043138
 10
290.1787765985
 20
343.9728530672
 10
290.1781375912
 20
343.9711909666
 10
290.177528863
 20
343.9695188656
 10
290.1769504797
 20
343.9678369592
 10
290.1764024382
 20
343.9661452772
 10
290.1758847355
 20
343.9644438497
 10
290.1753974113
 20
343.9627328684
 10
290.1749406774
 20
343.9610131717
 10
290.1745147879
 20
343.9592857594
 10
290.1741199975
 20
343.9575516317
 10
290.1737565205
 20
343.9558116421
 10
290.1734244117
 20
343.9540660592
 10
290.1731236859
 20
343.952315005
 10
290.1728543577
 20
343.9505586016
 10
290.1726164563
 20
343.9487971239
 10
290.1724100679
 20
343.9470314573
 10
290.1722352931
 20
343.9452626404
 10
290.1720922325
 20
343.9434917112
 10
290.171980968
 20
343.9417194775
 10
290.1719015071
 20
343.9399458239
 10
290.1718538387
 20
343.9381704041
 10
290.1718379517
 20
343.9363928723
 10
291.658383668
 20
344.0363928723
 10
290.2727430219
 20
344.0363928723
 10
291.7592887383
 20
343.9363928723
 10
291.7592728513
 20
343.9381704042
 10
291.7592251829
 20
343.9399458239
 10
291.759145722
 20
343.9417194775
 10
291.7590344575
 20
343.9434917112
 10
291.7588913968
 20
343.9452626404
 10
291.758716622
 20
343.9470314573
 10
291.7585102336
 20
343.9487971239
 10
291.7582723322
 20
343.9505586016
 10
291.7580030041
 20
343.952315005
 10
291.7577022782
 20
343.9540660592
 10
291.7573701694
 20
343.9558116421
 10
291.7570066925
 20
343.9575516317
 10
291.756611902
 20
343.9592857594
 10
291.7561860126
 20
343.9610131717
 10
291.7557292786
 20
343.9627328684
 10
291.7552419545
 20
343.9644438497
 10
291.7547242518
 20
343.9661452772
 10
291.7541762103
 20
343.9678369592
 10
291.7535978269
 20
343.9695188656
 10
291.7529890987
 20
343.9711909666
 10
291.7523500915
 20
343.9728530672
 10
291.7516811469
 20
343.9745043138
 10
291.7509826758
 20
343.9761436879
 10
291.7502550886
 20
343.9777701708
 10
291.7494987295
 20
343.9793829075
 10
291.7487136766
 20
343.9809816968
 10
291.7478999413
 20
343.9825665008
 10
291.7470575353
 20
343.9841372817
 10
291.7461865504
 20
343.9856938614
 10
291.7452874006
 20
343.9872355008
 10
291.7443605801
 20
343.9887613206
 10
291.7434065835
 20
343.9902704415
 10
291.7424258433
 20
343.991762101
 10
291.7414185456
 20
343.9932360039
 10
291.7403848145
 20
343.9946919722
 10
291.7393247743
 20
343.9961298276
 10
291.7382386032
 20
343.9975493195
 10
291.7371266954
 20
343.9989499082
 10
291.7359894991
 20
344.0003309813
 10
291.7348274622
 20
344.0016919266
 10
291.7336410206
 20
344.0030321682
 10
291.7324305609
 20
344.0043512749
 10
291.7311964574
 20
344.0056488517
 10
291.7299390841
 20
344.0069245037
 10
291.7286587996
 20
344.00817785
 10
291.7273558991
 20
344.009408566
 10
291.7260306618
 20
344.010616341
 10
291.724683367
 20
344.0118008646
 10
291.7233143607
 20
344.0129617867
 10
291.7219242541
 20
344.0140986002
 10
291.720513725
 20
344.0152107584
 10
291.7190834514
 20
344.0162977147
 10
291.7176340161
 20
344.017358995
 10
291.7161656215
 20
344.018394415
 10
291.7146783756
 20
344.019403863
 10
291.7131723857
 20
344.0203872273
 10
291.7116478948
 20
344.0213443219
 10
291.7101056863
 20
344.0222746652
 10
291.7085466787
 20
344.0231777012
 10
291.7069717908
 20
344.024052874
 10
291.7053817924
 20
344.0248997145
 10
291.7037768589
 20
344.0257180998
 10
291.7021570171
 20
344.0265079937
 10
291.7005222936
 20
344.0272693601
 10
291.6988728819
 20
344.0280020947
 10
291.6972096426
 20
344.0287058213
 10
291.6955336027
 20
344.0293800957
 10
291.6938457896
 20
344.0300244737
 10
291.6921470708
 20
344.0306385793
 10
291.6904376753
 20
344.0312223092
 10
291.6887176725
 20
344.0317756284
 10
291.6869871317
 20
344.032298502
 10
291.6852462782
 20
344.0327908547
 10
291.6834959608
 20
344.0332524506
 10
291.6817371844
 20
344.0336830133
 10
291.6799709537
 20
344.0340822668
 10
291.6781981362
 20
344.0344499735
 10
291.6764190494
 20
344.0347860513
 10
291.6746338736
 20
344.0350904565
 10
291.672842789
 20
344.0353631455
 10
291.6710461241
 20
344.0356040633
 10
291.6692447996
 20
344.0358131079
 10
291.6674398848
 20
344.0359901657
 10
291.6656324487
 20
344.0361351233
 10
291.6638233227
 20
344.0362478858
 10
291.6620123882
 20
344.0363284326
 10
291.6601992888
 20
344.0363767621
 10
291.658383668
 20
344.0363928723
 10
291.7592887383
 20
343.9363928723
 10
291.7592887383
 20
343.7763928723
 10
291.7592887383
 20
343.7763928723
 10
291.3528616796
 20
343.7763928723
 10
291.3528616796
 20
343.7763928723
 10
291.3528616796
 20
341.7763928723
 10
291.3528616796
 20
341.7763928723
 10
290.5782650104
 20
341.7763928723
 97
        0
 75
     0
 76
     0
 52
45.0
 41
11.88
 77
     0
 78
     1
 53
45.0
 43
0.0
 44
0.0
 45
-8.4004285605
 46
8.4004285605
 79
     0
 98
        1
 10
0.0
 20
0.0
  0
HATCH
  5
56D
330
23B
100
AcDbEntity
  8
0
 62
     2
100
AcDbHatch
 10
0.0
 20
0.0
 30
0.0
210
0.0
220
0.0
230
1.0
  2
default__32
 70
     0
 71
     0
 91
        1
 92
        1
 93
        4
 72
     1
 10
555.0404895591
 20
374.2652569396
 11
555.0404895591
 21
373.7252569396
 72
     1
 10
555.0404895591
 20
373.7252569396
 11
547.3706979768
 21
373.7252569396
 72
     1
 10
547.3706979768
 20
373.7252569396
 11
547.3706979768
 21
374.2652569396
 72
     1
 10
547.3706979768
 20
374.2652569396
 11
555.0404895591
 21
374.2652569396
 97
        0
 75
     0
 76
     0
 52
45.0
 41
11.88
 77
     0
 78
     1
 53
45.0
 43
0.0
 44
0.0
 45
-8.4004285605
 46
8.4004285605
 79
     0
 98
        1
 10
0.0
 20
0.0
  0
HATCH
  5
56E
330
23B
100
AcDbEntity
  8
0
 62
     2
100
AcDbHatch
 10
0.0
 20
0.0
 30
0.0
210
0.0
220
0.0
230
1.0
  2
default__35
 70
     0
 71
     0
 91
        1
 92
        2
 72
     0
 73
     1
 93
       83
 10
547.5904797057
 20
374.5224851006
 10
547.5904797057
 20
378.8080287786
 10
547.5904797057
 20
378.8080287786
 10
547.6126518654
 20
378.8232807782
 10
547.6347287813
 20
378.8384191918
 10
547.6567101143
 20
378.8534436503
 10
547.6785955252
 20
378.8683537847
 10
547.7003846749
 20
378.8831492262
 10
547.7220772243
 20
378.8978296057
 10
547.7436730602
 20
378.9123948003
 10
547.7651729741
 20
378.9268456708
 10
547.7865779833
 20
378.9411833241
 10
547.8078891053
 20
378.9554088673
 10
547.8291073575
 20
378.969523407
 10
547.8502337575
 20
378.9835280504
 10
547.8712690964
 20
378.9974236581
 10
547.8922132613
 20
379.0112101073
 10
547.9130659129
 20
379.0248870291
 10
547.9338267123
 20
379.0384540543
 10
547.9544953202
 20
379.0519108142
 10
547.9750713974
 20
379.0652569396
 10
547.9750713974
 20
379.0652569396
 10
554.4361161385
 20
379.0652569396
 10
554.4361161385
 20
379.0652569396
 10
554.4566923173
 20
379.0519107475
 10
554.4773610148
 20
379.0384539287
 10
554.4981218921
 20
379.024886852
 10
554.5189746101
 20
379.0112098863
 10
554.5399188298
 20
378.9974234005
 10
554.5609542121
 20
378.9835277634
 10
554.582080644
 20
378.969523098
 10
554.6032989166
 20
378.9554085435
 10
554.6246100471
 20
378.9411829935
 10
554.6460150525
 20
378.9268453414
 10
554.6675149501
 20
378.9123944807
 10
554.689110757
 20
378.8978293049
 10
554.7108032643
 20
378.8831489532
 10
554.7325923589
 20
378.8683535486
 10
554.7544777019
 20
378.85344346
 10
554.7764589541
 20
378.8384190562
 10
554.7985357766
 20
378.8232807061
 10
554.8207078302
 20
378.8080287786
 10
554.8207078302
 20
378.8080287786
 10
554.8207078302
 20
374.5224851006
 10
554.8207078302
 20
374.5224851006
 10
554.7985357766
 20
374.5072331731
 10
554.7764589541
 20
374.492094823
 10
554.7544777019
 20
374.4770704192
 10
554.7325923589
 20
374.4621603306
 10
554.7108032643
 20
374.4473649261
 10
554.689110757
 20
374.4326845744
 10
554.6675149501
 20
374.4181193985
 10
554.6460150525
 20
374.4036685378
 10
554.6246100471
 20
374.3893308857
 10
554.6032989166
 20
374.3751053357
 10
554.582080644
 20
374.3609907813
 10
554.5609542121
 20
374.3469861158
 10
554.5399188298
 20
374.3330904787
 10
554.5189746101
 20
374.3193039929
 10
554.4981218921
 20
374.3056270272
 10
554.4773610148
 20
374.2920599506
 10
554.4566923173
 20
374.2786031317
 10
554.4361161385
 20
374.2652569396
 10
554.4361161385
 20
374.2652569396
 10
547.9750713974
 20
374.2652569396
 10
547.9750713974
 20
374.2652569396
 10
547.9544953202
 20
374.2786030651
 10
547.9338267123
 20
374.2920598249
 10
547.9130659129
 20
374.3056268502
 10
547.8922132613
 20
374.3193037719
 10
547.8712690964
 20
374.3330902211
 10
547.8502337575
 20
374.3469858289
 10
547.8291073575
 20
374.3609904722
 10
547.8078891053
 20
374.375105012
 10
547.7865779833
 20
374.3893305551
 10
547.7651729741
 20
374.4036682085
 10
547.7436730602
 20
374.418119079
 10
547.7220772243
 20
374.4326842735
 10
547.7003846749
 20
374.447364653
 10
547.6785955252
 20
374.4621600945
 10
547.6567101143
 20
374.4770702289
 10
547.6347287813
 20
374.4920946874
 10
547.6126518654
 20
374.507233101
 97
        0
 75
     0
 76
     0
 52
45.0
 41
11.88
 77
     0
 78
     1
 53
45.0
 43
0.0
 44
0.0
 45
-8.4004285605
 46
8.4004285605
 79
     0
 98
        1
 10
0.0
 20
0.0
  0
HATCH
  5
570
330
23B
100
AcDbEntity
  8
0
 62
     2
100
AcDbHatch
 10
0.0
 20
0.0
 30
0.0
210
0.0
220
0.0
230
1.0
  2
default__40
 70
     0
 71
     0
 91
        1
 92
        2
 72
     0
 73
     1
 93
       46
 10
555.8955005771
 20
361.1252569396
 10
555.8955005771
 20
362.9252569396
 10
555.8955005771
 20
362.9252569396
 10
559.5891063126
 20
362.9252569396
 10
559.5891063126
 20
362.9252569396
 10
559.5932912393
 20
362.8779499954
 10
559.5973929822
 20
362.8307613561
 10
559.6014115413
 20
362.7836910215
 10
559.6053469166
 20
362.7367389918
 10
559.6091991081
 20
362.689905267
 10
559.6129681158
 20
362.6431898469
 10
559.6166539398
 20
362.5965927317
 10
559.6202565799
 20
362.5501139213
 10
559.6237760362
 20
362.5037534158
 10
559.6272123088
 20
362.4575112151
 10
559.6305653976
 20
362.4113873192
 10
559.6338353025
 20
362.3653817281
 10
559.6370220237
 20
362.3194944419
 10
559.6401255611
 20
362.2737254605
 10
559.6431459147
 20
362.2280747839
 10
559.6460830845
 20
362.1825424122
 10
559.6489370705
 20
362.1371283453
 10
559.6517078727
 20
362.0918325832
 10
559.6543954911
 20
362.046655126
 10
559.6569999257
 20
362.0015959735
 10
559.6595211766
 20
361.956655126
 10
559.6619592436
 20
361.9118325832
 10
559.6643141268
 20
361.8671283453
 10
559.6665858263
 20
361.8225424122
 10
559.668774342
 20
361.7780747839
 10
559.6708796738
 20
361.7337254605
 10
559.6729018219
 20
361.6894944419
 10
559.6748407862
 20
361.6453817281
 10
559.6766965667
 20
361.6013873192
 10
559.6784691634
 20
361.5575112151
 10
559.6801585763
 20
361.5137534158
 10
559.6817648054
 20
361.4701139213
 10
559.6832878507
 20
361.4265927317
 10
559.6847277122
 20
361.3831898469
 10
559.68608439
 20
361.339905267
 10
559.6873578839
 20
361.2967389918
 10
559.6885481941
 20
361.2536910215
 10
559.6896553204
 20
361.2107613561
 10
559.690679263
 20
361.1679499954
 10
559.6916200218
 20
361.1252569396
 10
559.6916200218
 20
361.1252569396
 97
        0
 75
     0
 76
     0
 52
45.0
 41
11.88
 77
     0
 78
     1
 53
45.0
 43
0.0
 44
0.0
 45
-8.4004285605
 46
8.4004285605
 79
     0
 98
        1
 10
0.0
 20
0.0
  0
HATCH
  5
571
330
23B
100
AcDbEntity
  8
0
 62
     2
100
AcDbHatch
 10
0.0
 20
0.0
 30
0.0
210
0.0
220
0.0
230
1.0
  2
default__41
 70
     0
 71
     0
 91
        1
 92
        2
 72
     0
 73
     1
 93
       20
 10
555.8955005771
 20
362.9252569396
 10
555.8955005771
 20
363.5252569396
 10
555.8955005771
 20
363.5252569396
 10
559.5290165984
 20
363.5252569396
 10
559.5290165984
 20
363.5252569396
 10
559.5338086954
 20
363.4816727576
 10
559.5385238739
 20
363.4382004277
 10
559.543162134
 20
363.3948399501
 10
559.5477234755
 20
363.3515913246
 10
559.5522078986
 20
363.3084545513
 10
559.5566154032
 20
363.2654296301
 10
559.5609459893
 20
363.2225165612
 10
559.565199657
 20
363.1797153444
 10
559.5693764062
 20
363.1370259798
 10
559.5734762369
 20
363.0944484674
 10
559.5774991491
 20
363.0519828072
 10
559.5814451428
 20
363.0096289992
 10
559.5853142181
 20
362.9673870433
 10
559.5891063749
 20
362.9252569396
 10
559.5891063749
 20
362.9252569396
 97
        0
 75
     0
 76
     0
 52
45.0
 41
11.88
 77
     0
 78
     1
 53
45.0
 43
0.0
 44
0.0
 45
-8.4004285605
 46
8.4004285605
 79
     0
 98
        1
 10
0.0
 20
0.0
  0
HATCH
  5
572
330
23B
100
AcDbEntity
  8
0
 62
     2
100
AcDbHatch
 10
0.0
 20
0.0
 30
0.0
210
0.0
220
0.0
230
1.0
  2
default__42
 70
     0
 71
     0
 91
        1
 92
        2
 72
     0
 73
     1
 93
       58
 10
555.8955005771
 20
363.5252569396
 10
555.8955005771
 20
365.9252569396
 10
555.8955005771
 20
365.9252569396
 10
559.1717257676
 20
365.9252569396
 10
559.1717257676
 20
365.9252569396
 10
559.180753993
 20
365.8759254273
 10
559.1896976206
 20
365.8267185294
 10
559.1985566503
 20
365.7776362458
 10
559.2073310821
 20
365.7286785766
 10
559.2160209159
 20
365.6798455217
 10
559.2246261519
 20
365.6311370812
 10
559.23314679
 20
365.5825532551
 10
559.2415828302
 20
365.5340940433
 10
559.2499342726
 20
365.4857594458
 10
559.258201117
 20
365.4375494628
 10
559.2663833635
 20
365.3894640941
 10
559.2744810121
 20
365.3415033397
 10
559.2824940629
 20
365.2936671997
 10
559.2904225157
 20
365.2459556741
 10
559.2982663707
 20
365.1983687628
 10
559.3060256278
 20
365.1509064659
 10
559.3137002869
 20
365.1035687833
 10
559.3212903482
 20
365.0563557151
 10
559.3287958116
 20
365.0092672613
 10
559.3362166771
 20
364.9623034218
 10
559.3435529447
 20
364.9154641967
 10
559.3508046144
 20
364.8687495859
 10
559.3579716862
 20
364.8221595895
 10
559.3650541601
 20
364.7756942074
 10
559.3720520362
 20
364.7293534397
 10
559.3789653143
 20
364.6831372864
 10
559.3857939945
 20
364.6370457474
 10
559.3925380769
 20
364.5910788228
 10
559.3991975613
 20
364.5452365126
 10
559.4057724479
 20
364.4995188167
 10
559.4122627366
 20
364.4539257351
 10
559.4186684274
 20
364.4084572679
 10
559.4249895202
 20
364.3631134151
 10
559.4312260152
 20
364.3178941766
 10
559.4373779123
 20
364.2727995525
 10
559.4434452115
 20
364.2278295428
 10
559.4494279129
 20
364.1829841474
 10
559.4553260163
 20
364.1382633664
 10
559.4611395218
 20
364.0936671997
 10
559.4668684294
 20
364.0491956474
 10
559.4725127392
 20
364.0048487094
 10
559.478072451
 20
363.9606263858
 10
559.483547565
 20
363.9165286766
 10
559.4889380811
 20
363.8725555817
 10
559.4942439992
 20
363.8287071012
 10
559.4994653195
 20
363.784983235
 10
559.5046020419
 20
363.7413839832
 10
559.5096541664
 20
363.6979093458
 10
559.514621693
 20
363.6545593227
 10
559.5195046217
 20
363.611333914
 10
559.5243029525
 20
363.5682331196
 10
559.5290166854
 20
363.5252569396
 10
559.5290166854
 20
363.5252569396
 97
        0
 75
     0
 76
     0
 52
45.0
 41
11.88
 77
     0
 78
     1
 53
45.0
 43
0.0
 44
0.0
 45
-8.4004285605
 46
8.4004285605
 79
     0
 98
        1
 10
0.0
 20
0.0
  0
MTEXT
  5
71CF
330
23B
100
AcDbEntity
  8
ALL_DETAIL_ITEM
  6
Continuous
 62
     2
100
AcDbMText
 10
71.57096900595502
 20
286.4504208039924
 30
0.0
 40
15.0
 41
166.5597129215419
 71
     2
 72
     1
  1
{ASG/F 800-1000\PM 1:10}
 73
     1
 44
1.0
1001
ACAD
1000
ACAD_MTEXT_DEFINED_HEIGHT_BEGIN
1070
    46
1040
40.0
1000
ACAD_MTEXT_DEFINED_HEIGHT_END
  0
LINE
  5
7369
330
23B
100
AcDbEntity
  8
02___PRT_ALL_AXES
  6
CENTER
 62
     2
100
AcDbLine
 10
68.01646516679227
 20
59.58097723357727
 30
0.0
 11
68.01646516684224
 21
182.0557967434773
 31
0.0
  0
LINE
  5
736A
330
23B
100
AcDbEntity
  8
02___PRT_ALL_AXES
  6
CENTER
 62
     2
100
AcDbLine
 10
129.2664651667922
 20
120.8183869885273
 30
0.0
 11
6.766465166792244
 21
120.8183869885273
 31
0.0
  0
LWPOLYLINE
  5
80D5
330
23B
100
AcDbEntity
  8
ALL_ASSEM_MEMBER
  6
Continuous
 62
     7
100
AcDbPolyline
 90
       10
 70
   128
 43
0.0
 10
10.99041650909226
 20
177.8592736946773
 10
10.99455934629225
 20
177.8879497225773
 10
11.00291382319224
 20
177.9160691526773
 10
11.01521317389225
 20
177.9427067613773
 10
11.03106642769225
 20
177.9672132977773
 10
11.05036859749225
 20
177.9894471742773
 10
11.07260322719225
 20
178.0087487213773
 10
11.09711044259225
 20
178.0246013548773
 10
11.12374866309224
 20
178.0369001543773
 10
11.15186877739225
 20
178.0452542561773
  0
LWPOLYLINE
  5
80DA
330
23B
100
AcDbEntity
  8
ALL_ASSEM_MEMBER
  6
Continuous
 62
     7
100
AcDbPolyline
 90
        4
 70
   128
 43
0.0
 10
20.77852721579222
 20
168.2203134274773
 10
20.77720262899226
 20
168.2172473928773
 10
20.77612536429223
 20
168.2141442648773
 10
20.77529922919223
 20
168.2110225405773
  0
LWPOLYLINE
  5
80DB
330
23B
100
AcDbEntity
  8
ALL_ASSEM_MEMBER
  6
Continuous
 62
     7
100
AcDbPolyline
 90
        6
 70
   128
 43
0.0
 10
20.81157724989225
 20
168.2698144802773
 10
20.80395723389225
 20
168.2659209107773
 10
20.79673766439225
 20
168.2601656600773
 10
20.79027968679225
 20
168.2526862627773
 10
20.78494543279226
 20
168.2437308715773
 10
20.78102215349224
 20
168.2335624493773
  0
LINE
  5
80DC
330
23B
100
AcDbEntity
  8
ALL_ASSEM_MEMBER
  6
Continuous
 62
     7
100
AcDbLine
 10
124.8810615561923
 20
63.59151972087727
 30
0.0
 11
124.8523850012922
 21
63.58737712287726
 31
0.0
  0
LINE
  5
80DD
330
23B
100
AcDbEntity
  8
ALL_ASSEM_MEMBER
  6
Continuous
 62
     7
100
AcDbLine
 10
11.15186877739225
 20
63.59151972087727
 30
0.0
 11
11.18054533239223
 21
63.58737712287726
 31
0.0
  0
LWPOLYLINE
  5
80DE
330
23B
100
AcDbEntity
  8
ALL_ASSEM_MEMBER
  6
Continuous
 62
     7
100
AcDbPolyline
 90
        6
 70
   128
 43
0.0
 10
20.81157724989225
 20
73.36695949677727
 10
20.80395723389225
 20
73.37085306627728
 10
20.79673766439225
 20
73.37660831697727
 10
20.79027968679225
 20
73.38408771427726
 10
20.78494543279226
 20
73.39304310547726
 10
20.78102215349224
 20
73.40321152777727
  0
LWPOLYLINE
  5
80DF
330
23B
100
AcDbEntity
  8
ALL_ASSEM_MEMBER
  6
Continuous
 62
     7
100
AcDbPolyline
 90
        4
 70
   128
 43
0.0
 10
20.77852721579222
 20
73.41646054957727
 10
20.77720262899226
 20
73.41952658417728
 10
20.77612536429223
 20
73.42262971217727
 10
20.77529922919223
 20
73.42575143647727
  0
LWPOLYLINE
  5
80E4
330
23B
100
AcDbEntity
  8
ALL_ASSEM_MEMBER
  6
Continuous
 62
     7
100
AcDbPolyline
 90
       10
 70
   128
 43
0.0
 10
10.99041650909226
 20
63.77750028237728
 10
10.99455934629225
 20
63.74882425447728
 10
11.00291382319224
 20
63.72070482437726
 10
11.01521317389225
 20
63.69406721567728
 10
11.03106642769225
 20
63.66956067927728
 10
11.05036859749225
 20
63.64732680277726
 10
11.07260322719225
 20
63.62802525567727
 10
11.09711044259225
 20
63.61217262217727
 10
11.12374866309224
 20
63.59987382267727
 10
11.15186877739225
 20
63.59151972087727
  0
LINE
  5
80E7
330
23B
100
AcDbEntity
  8
ALL_ASSEM_MEMBER
  6
Continuous
 62
     7
100
AcDbLine
 10
7.766465166792244
 20
181.0605880418773
 30
0.0
 11
7.766465166792244
 21
60.57618593517728
 31
0.0
  0
LINE
  5
80E8
330
23B
100
AcDbEntity
  8
ALL_ASSEM_MEMBER
  6
Continuous
 62
     7
100
AcDbLine
 10
10.73019717619223
 20
181.0605880418773
 30
0.0
 11
10.73019717619223
 21
177.9105880418773
 31
0.0
  0
LINE
  5
80E9
330
23B
100
AcDbEntity
  8
ALL_ASSEM_MEMBER
  6
Continuous
 62
     7
100
AcDbLine
 10
10.73019717619223
 20
63.72618593517726
 30
0.0
 11
10.73019717619223
 21
60.57618593517728
 31
0.0
  0
LINE
  5
80EA
330
23B
100
AcDbEntity
  8
ALL_ASSEM_MEMBER
  6
Continuous
 62
     7
100
AcDbLine
 10
10.73019717619223
 20
63.72618593517726
 30
0.0
 11
10.73019717619223
 21
177.9105880418773
 31
0.0
  0
LINE
  5
80EB
330
23B
100
AcDbEntity
  8
ALL_ASSEM_MEMBER
  6
Continuous
 62
     7
100
AcDbLine
 10
10.77772601059223
 20
63.73744677897727
 30
0.0
 11
10.77772601059223
 21
177.8993271980773
 31
0.0
  0
LINE
  5
80EC
330
23B
100
AcDbEntity
  8
ALL_ASSEM_MEMBER
  6
Continuous
 62
     7
100
AcDbLine
 10
10.78166497549225
 20
60.58097723357727
 30
0.0
 11
10.78166497549225
 21
63.53589300757727
 31
0.0
  0
LINE
  5
80ED
330
23B
100
AcDbEntity
  8
ALL_ASSEM_MEMBER
  6
Continuous
 62
     7
100
AcDbLine
 10
10.78166497549225
 20
178.1008809694773
 30
0.0
 11
10.78166497549225
 21
181.0557967434773
 31
0.0
  0
LINE
  5
80EE
330
23B
100
AcDbEntity
  8
ALL_ASSEM_MEMBER
  6
Continuous
 62
     7
100
AcDbLine
 10
10.99041650909226
 20
63.80755077427727
 30
0.0
 11
10.99041650909226
 21
63.77750028237728
 31
0.0
  0
LINE
  5
80EF
330
23B
100
AcDbEntity
  8
ALL_ASSEM_MEMBER
  6
Continuous
 62
     7
100
AcDbLine
 10
10.99041650909226
 20
177.8292232027773
 30
0.0
 11
10.99041650909226
 21
177.8592736946773
 31
0.0
  0
LINE
  5
80F0
330
23B
100
AcDbEntity
  8
ALL_ASSEM_MEMBER
  6
Continuous
 62
     7
100
AcDbLine
 10
11.17659375329225
 20
63.58342308907726
 30
0.0
 11
11.17659375279226
 21
63.58737712237726
 31
0.0
  0
LINE
  5
80F1
330
23B
100
AcDbEntity
  8
ALL_ASSEM_MEMBER
  6
Continuous
 62
     7
100
AcDbLine
 10
11.17659374679224
 20
178.0493968542773
 30
0.0
 11
11.17659374679224
 21
178.0533508882773
 31
0.0
  0
LWPOLYLINE
  5
80F7
330
23B
100
AcDbEntity
  8
ALL_ASSEM_MEMBER
  6
Continuous
 62
     7
100
AcDbPolyline
 90
        4
 70
   128
 43
0.0
 10
20.64233963299225
 20
168.2514609153773
 10
20.64691461059226
 20
168.2671428711773
 10
20.65263565109223
 20
168.2824579679773
 10
20.65946032319226
 20
168.2973116442773
  0
LWPOLYLINE
  5
80F9
330
23B
100
AcDbEntity
  8
ALL_ASSEM_MEMBER
  6
Continuous
 62
     7
100
AcDbPolyline
 90
        4
 70
   128
 43
0.0
 10
20.64233963299225
 20
168.2514609153773
 10
20.63813221969224
 20
168.2381051678773
 10
20.63491409509226
 20
168.2246010467773
 10
20.63270048849225
 20
168.2110225405773
  0
LWPOLYLINE
  5
80FA
330
23B
100
AcDbEntity
  8
ALL_ASSEM_MEMBER
  6
Continuous
 62
     7
100
AcDbPolyline
 90
        8
 70
   128
 43
0.0
 10
115.2213530836922
 20
73.22436925177726
 10
115.2474713033923
 20
73.23043183297727
 10
115.2730599585922
 20
73.24039168857726
 10
115.2974248507923
 20
73.25401159247727
 10
115.3201917342922
 20
73.27113024747726
 10
115.3406981756922
 20
73.29129949817727
 10
115.3586253770922
 20
73.31426393007726
 10
115.3734700103923
 20
73.33946233277726
  0
LINE
  5
80FB
330
23B
100
AcDbEntity
  8
ALL_ASSEM_MEMBER
  6
Continuous
 62
     7
100
AcDbLine
 10
115.2213530836922
 20
73.22436925177726
 30
0.0
 11
115.2001455509922
 21
73.22001639747728
 31
0.0
  0
LINE
  5
80FC
330
23B
100
AcDbEntity
  8
ALL_ASSEM_MEMBER
  6
Continuous
 62
     7
100
AcDbLine
 10
128.2664651667922
 20
60.57618593517728
 30
0.0
 11
125.3027331573923
 21
60.57618593517728
 31
0.0
  0
LINE
  5
80FD
330
23B
100
AcDbEntity
  8
ALL_ASSEM_MEMBER
  6
Continuous
 62
     7
100
AcDbLine
 10
10.73019717619223
 20
60.57618593517728
 30
0.0
 11
7.766465166792244
 21
60.57618593517728
 31
0.0
  0
LINE
  5
80FE
330
23B
100
AcDbEntity
  8
ALL_ASSEM_MEMBER
  6
Continuous
 62
     7
100
AcDbLine
 10
10.78166497549225
 20
60.58097723357727
 30
0.0
 11
125.2512653581923
 21
60.58097723357727
 31
0.0
  0
LINE
  5
80FF
330
23B
100
AcDbEntity
  8
ALL_ASSEM_MEMBER
  6
Continuous
 62
     7
100
AcDbLine
 10
125.2512653581923
 20
63.53589300757727
 30
0.0
 11
10.78166497549225
 21
63.53589300757727
 31
0.0
  0
LINE
  5
8100
330
23B
100
AcDbEntity
  8
ALL_ASSEM_MEMBER
  6
Continuous
 62
     7
100
AcDbLine
 10
124.8563365863923
 20
63.58342308927726
 30
0.0
 11
11.17659375339224
 21
63.58342308927726
 31
0.0
  0
LINE
  5
8101
330
23B
100
AcDbEntity
  8
ALL_ASSEM_MEMBER
  6
Continuous
 62
     7
100
AcDbLine
 10
125.2552043229923
 20
63.73744677897727
 30
0.0
 11
125.1126178198923
 21
63.73744677897727
 31
0.0
  0
LINE
  5
8102
330
23B
100
AcDbEntity
  8
ALL_ASSEM_MEMBER
  6
Continuous
 62
     7
100
AcDbLine
 10
10.77772601059223
 20
63.73744677897727
 30
0.0
 11
10.92031251369224
 21
63.73744677897727
 31
0.0
  0
LINE
  5
8108
330
23B
100
AcDbEntity
  8
ALL_ASSEM_MEMBER
  6
Continuous
 62
     7
100
AcDbLine
 10
20.81157724989225
 20
73.22436925177726
 30
0.0
 11
20.83278478269224
 21
73.22001639747728
 31
0.0
  0
LWPOLYLINE
  5
8109
330
23B
100
AcDbEntity
  8
ALL_ASSEM_MEMBER
  6
Continuous
 62
     7
100
AcDbPolyline
 90
        8
 70
   128
 43
0.0
 10
20.81157724989225
 20
73.22436925177726
 10
20.78545903029226
 20
73.23043183297727
 10
20.75987037509225
 20
73.24039168857726
 10
20.73550548289225
 20
73.25401159247727
 10
20.71273859939225
 20
73.27113024747726
 10
20.69223215789225
 20
73.29129949817727
 10
20.67430495659224
 20
73.31426393007726
 10
20.65946032319226
 20
73.33946233277726
  0
LWPOLYLINE
  5
810A
330
23B
100
AcDbEntity
  8
ALL_ASSEM_MEMBER
  6
Continuous
 62
     7
100
AcDbPolyline
 90
        4
 70
   128
 43
0.0
 10
20.64233963299225
 20
73.38531306167727
 10
20.63813221969224
 20
73.39866880917728
 10
20.63491409509226
 20
73.41217293027725
 10
20.63270048849225
 20
73.42575143647727
  0
LWPOLYLINE
  5
810C
330
23B
100
AcDbEntity
  8
ALL_ASSEM_MEMBER
  6
Continuous
 62
     7
100
AcDbPolyline
 90
        4
 70
   128
 43
0.0
 10
20.64233963299225
 20
73.38531306167727
 10
20.64691461059226
 20
73.36963110587726
 10
20.65263565109223
 20
73.35431600907728
 10
20.65946032319226
 20
73.33946233277726
  0
LWPOLYLINE
  5
811A
330
23B
100
AcDbEntity
  8
ALL_ASSEM_MEMBER
  6
Continuous
 62
     7
100
AcDbPolyline
 90
        4
 70
   128
 43
0.0
 10
20.77852721579222
 20
168.2203134274773
 10
20.77907588059225
 20
168.2248293606773
 10
20.77991106519224
 20
168.2292535859773
 10
20.78102215349224
 20
168.2335624493773
  0
LINE
  5
811B
330
23B
100
AcDbEntity
  8
ALL_ASSEM_MEMBER
  6
Continuous
 62
     7
100
AcDbLine
 10
115.2213530836922
 20
73.36695949677727
 30
0.0
 11
115.2001455509922
 21
73.36260664247726
 31
0.0
  0
LINE
  5
811C
330
23B
100
AcDbEntity
  8
ALL_ASSEM_MEMBER
  6
Continuous
 62
     7
100
AcDbLine
 10
10.79192690779223
 20
63.72900114607725
 30
0.0
 11
10.73019717619223
 21
63.72618593517726
 31
0.0
  0
LINE
  5
812E
330
23B
100
AcDbEntity
  8
ALL_ASSEM_MEMBER
  6
Continuous
 62
     7
100
AcDbLine
 10
125.2410034257923
 20
63.72900114607725
 30
0.0
 11
125.3027331573923
 21
63.72618593517726
 31
0.0
  0
LWPOLYLINE
  5
812F
330
23B
100
AcDbEntity
  8
ALL_ASSEM_MEMBER
  6
Continuous
 62
     7
100
AcDbPolyline
 90
        4
 70
   128
 43
0.0
 10
124.8563365771923
 20
63.58342308927726
 10
124.9879728016923
 20
63.57301818567728
 10
125.1196291383922
 20
63.55620650127727
 10
125.2512653581923
 20
63.53589300757727
  0
LINE
  5
8130
330
23B
100
AcDbEntity
  8
ALL_ASSEM_MEMBER
  6
Continuous
 62
     7
100
AcDbLine
 10
20.81157724989225
 20
73.36695949677727
 30
0.0
 11
20.83278478269224
 21
73.36260664247726
 31
0.0
  0
LWPOLYLINE
  5
8131
330
23B
100
AcDbEntity
  8
ALL_ASSEM_MEMBER
  6
Continuous
 62
     7
100
AcDbPolyline
 90
        4
 70
   128
 43
0.0
 10
20.77852721579222
 20
73.41646054957727
 10
20.77907588059225
 20
73.41194461637727
 10
20.77991106519224
 20
73.40752039107727
 10
20.78102215349224
 20
73.40321152777727
  0
LINE
  5
8134
330
23B
100
AcDbEntity
  8
ALL_ASSEM_MEMBER
  6
Continuous
 62
     7
100
AcDbLine
 10
20.47142179169225
 20
73.43114256007726
 30
0.0
 11
20.47142179169225
 21
168.2056314169773
 31
0.0
  0
LINE
  5
8135
330
23B
100
AcDbEntity
  8
ALL_ASSEM_MEMBER
  6
Continuous
 62
     7
100
AcDbLine
 10
20.63270048849225
 20
168.2110225405773
 30
0.0
 11
20.63270048849225
 21
168.1828522166773
 31
0.0
  0
LINE
  5
8136
330
23B
100
AcDbEntity
  8
ALL_ASSEM_MEMBER
  6
Continuous
 62
     7
100
AcDbLine
 10
20.63270048849225
 20
73.42575143647727
 30
0.0
 11
20.63270048849225
 21
73.45392176037726
 31
0.0
  0
LINE
  5
8137
330
23B
100
AcDbEntity
  8
ALL_ASSEM_MEMBER
  6
Continuous
 62
     7
100
AcDbLine
 10
20.66153712919225
 20
73.47618593517726
 30
0.0
 11
20.66153712919225
 21
168.1605880418773
 31
0.0
  0
LINE
  5
8138
330
23B
100
AcDbEntity
  8
ALL_ASSEM_MEMBER
  6
Continuous
 62
     7
100
AcDbLine
 10
20.77529922919223
 20
168.2110225405773
 30
0.0
 11
20.77529922919223
 21
168.1605880418773
 31
0.0
  0
LINE
  5
8139
330
23B
100
AcDbEntity
  8
ALL_ASSEM_MEMBER
  6
Continuous
 62
     7
100
AcDbLine
 10
20.77529922919223
 20
73.42575143647727
 30
0.0
 11
20.77529922919223
 21
73.47618593517726
 31
0.0
  0
LINE
  5
813A
330
23B
100
AcDbEntity
  8
ALL_ASSEM_MEMBER
  6
Continuous
 62
     7
100
AcDbLine
 10
20.81157724989225
 20
168.4124047252773
 30
0.0
 11
20.81157724989225
 21
168.2698144802773
 31
0.0
  0
LINE
  5
813B
330
23B
100
AcDbEntity
  8
ALL_ASSEM_MEMBER
  6
Continuous
 62
     7
100
AcDbLine
 10
20.81157724989225
 20
73.22436925177726
 30
0.0
 11
20.81157724989225
 21
73.36695949677727
 31
0.0
  0
LINE
  5
813C
330
23B
100
AcDbEntity
  8
ALL_ASSEM_MEMBER
  6
Continuous
 62
     7
100
AcDbLine
 10
20.83278478269224
 20
168.4167575795773
 30
0.0
 11
20.83278478269224
 21
168.2741673345773
 31
0.0
  0
LINE
  5
813D
330
23B
100
AcDbEntity
  8
ALL_ASSEM_MEMBER
  6
Continuous
 62
     7
100
AcDbLine
 10
20.83278478269224
 20
73.22001639747728
 30
0.0
 11
20.83278478269224
 21
73.36260664247726
 31
0.0
  0
LINE
  5
813E
330
23B
100
AcDbEntity
  8
ALL_ASSEM_MEMBER
  6
Continuous
 62
     7
100
AcDbLine
 10
20.83713494489223
 20
168.4124047252773
 30
0.0
 11
20.83713494489223
 21
168.2698144802773
 31
0.0
  0
LINE
  5
813F
330
23B
100
AcDbEntity
  8
ALL_ASSEM_MEMBER
  6
Continuous
 62
     7
100
AcDbLine
 10
20.83713494489223
 20
73.22436925177726
 30
0.0
 11
20.83713494489223
 21
73.36695949677727
 31
0.0
  0
LWPOLYLINE
  5
8144
330
23B
100
AcDbEntity
  8
ALL_ASSEM_MEMBER
  6
Continuous
 62
     7
100
AcDbPolyline
 90
        4
 70
   128
 43
0.0
 10
10.78166497549225
 20
63.53589300757727
 10
10.91330119629225
 20
63.55620650147728
 10
11.04495753399226
 20
63.57301818587726
 10
11.17659375649225
 20
63.58342308927726
  0
LWPOLYLINE
  5
8145
330
23B
100
AcDbEntity
  8
ALL_ASSEM_MEMBER
  6
Continuous
 62
     7
100
AcDbPolyline
 90
        7
 70
   128
 43
0.0
 10
10.92031251369224
 20
63.73744677897727
 10
10.90827525229224
 20
63.73603917407726
 10
10.89186388829225
 20
63.73463156797726
 10
10.87148154739225
 20
63.73322396257728
 10
10.84762886929224
 20
63.73181635707726
 10
10.82089174289223
 20
63.73040875157727
 10
10.79192690779223
 20
63.72900114607725
  0
LINE
  5
814E
330
23B
100
AcDbEntity
  8
ALL_ASSEM_MEMBER
  6
Continuous
 62
     7
100
AcDbLine
 10
115.1957953887922
 20
73.22436925177726
 30
0.0
 11
20.83713494489223
 21
73.22436925177726
 31
0.0
  0
LINE
  5
814F
330
23B
100
AcDbEntity
  8
ALL_ASSEM_MEMBER
  6
Continuous
 62
     7
100
AcDbLine
 10
115.1514137199923
 20
73.41448957847726
 30
0.0
 11
20.88151661369224
 21
73.41448957847726
 31
0.0
  0
LINE
  5
8150
330
23B
100
AcDbEntity
  8
ALL_ASSEM_MEMBER
  6
Continuous
 62
     7
100
AcDbLine
 10
115.4002298451923
 20
73.42575143647727
 30
0.0
 11
115.2576311044922
 21
73.42575143647727
 31
0.0
  0
LINE
  5
8151
330
23B
100
AcDbEntity
  8
ALL_ASSEM_MEMBER
  6
Continuous
 62
     7
100
AcDbLine
 10
20.63270048849225
 20
73.42575143647727
 30
0.0
 11
20.77529922919223
 21
73.42575143647727
 31
0.0
  0
LINE
  5
8152
330
23B
100
AcDbEntity
  8
ALL_ASSEM_MEMBER
  6
Continuous
 62
     7
100
AcDbLine
 10
115.5615085419923
 20
73.43114256007726
 30
0.0
 11
115.4189220387922
 21
73.43114256007726
 31
0.0
  0
LINE
  5
8153
330
23B
100
AcDbEntity
  8
ALL_ASSEM_MEMBER
  6
Continuous
 62
     7
100
AcDbLine
 10
20.47142179169225
 20
73.43114256007726
 30
0.0
 11
20.61400829479226
 21
73.43114256007726
 31
0.0
  0
LINE
  5
8154
330
23B
100
AcDbEntity
  8
ALL_ASSEM_MEMBER
  6
Continuous
 62
     7
100
AcDbLine
 10
115.3713932044922
 20
73.47618593517726
 30
0.0
 11
20.66153712919225
 21
73.47618593517726
 31
0.0
  0
LWPOLYLINE
  5
815E
330
23B
100
AcDbEntity
  8
ALL_ASSEM_MEMBER
  6
Continuous
 62
     7
100
AcDbPolyline
 90
        7
 70
   128
 43
0.0
 10
125.1126178198923
 20
63.73744677897727
 10
125.1246550813922
 20
63.73603917407726
 10
125.1410664453923
 20
63.73463156797726
 10
125.1614487861922
 20
63.73322396257728
 10
125.1853014642923
 20
63.73181635707726
 10
125.2120385906922
 20
63.73040875157727
 10
125.2410034257923
 20
63.72900114607725
  0
LINE
  5
8160
330
23B
100
AcDbEntity
  8
ALL_ASSEM_MEMBER
  6
Continuous
 62
     7
100
AcDbLine
 10
31.93129543299224
 20
145.2829070083773
 30
0.0
 11
31.59931902819224
 21
144.7079070083772
 31
0.0
  0
LINE
  5
8162
330
23B
100
AcDbEntity
  8
ALL_ASSEM_MEMBER
  6
Continuous
 62
     7
100
AcDbLine
 10
32.59524824259225
 20
144.1329070083773
 30
0.0
 11
32.92722464739225
 21
144.7079070083772
 31
0.0
  0
LINE
  5
8164
330
23B
100
AcDbEntity
  8
ALL_ASSEM_MEMBER
  6
Continuous
 62
     7
100
AcDbLine
 10
25.51072170469223
 20
129.7822708351773
 30
0.0
 11
25.17874529989223
 21
129.2072708351773
 31
0.0
  0
LINE
  5
8165
330
23B
100
AcDbEntity
  8
ALL_ASSEM_MEMBER
  6
Continuous
 62
     7
100
AcDbLine
 10
26.17467451429224
 20
128.6322708351773
 30
0.0
 11
26.50665091909224
 21
129.2072708351773
 31
0.0
  0
LINE
  5
8166
330
23B
100
AcDbEntity
  8
ALL_ASSEM_MEMBER
  6
Continuous
 62
     7
100
AcDbLine
 10
43.79496874219222
 20
157.1465803175773
 30
0.0
 11
43.46299233739225
 21
156.5715803175773
 31
0.0
  0
LINE
  5
8169
330
23B
100
AcDbEntity
  8
ALL_ASSEM_MEMBER
  6
Continuous
 62
     7
100
AcDbLine
 10
59.29560491529224
 20
78.06961993117727
 30
0.0
 11
59.95955772489225
 21
78.06961993117727
 31
0.0
  0
LINE
  5
816A
330
23B
100
AcDbEntity
  8
ALL_ASSEM_MEMBER
  6
Continuous
 62
     7
100
AcDbLine
 10
76.07337260869224
 20
78.06961993117727
 30
0.0
 11
76.73732541829224
 21
78.06961993117727
 31
0.0
  0
LINE
  5
816B
330
23B
100
AcDbEntity
  8
ALL_ASSEM_MEMBER
  6
Continuous
 62
     7
100
AcDbLine
 10
76.73732541829224
 20
79.21961993117728
 30
0.0
 11
76.07337260869224
 21
79.21961993117728
 31
0.0
  0
LINE
  5
816C
330
23B
100
AcDbEntity
  8
ALL_ASSEM_MEMBER
  6
Continuous
 62
     7
100
AcDbLine
 10
59.95955772489225
 20
79.21961993117728
 30
0.0
 11
59.29560491529224
 21
79.21961993117728
 31
0.0
  0
LINE
  5
816E
330
23B
100
AcDbEntity
  8
ALL_ASSEM_MEMBER
  6
Continuous
 62
     7
100
AcDbLine
 10
31.59931902819224
 20
96.92886696867727
 30
0.0
 11
31.93129543299224
 21
96.35386696867727
 31
0.0
  0
LINE
  5
8170
330
23B
100
AcDbEntity
  8
ALL_ASSEM_MEMBER
  6
Continuous
 62
     7
100
AcDbLine
 10
32.92722464739225
 20
96.92886696867727
 30
0.0
 11
32.59524824259225
 21
97.50386696867727
 31
0.0
  0
LINE
  5
8172
330
23B
100
AcDbEntity
  8
ALL_ASSEM_MEMBER
  6
Continuous
 62
     7
100
AcDbLine
 10
25.17874529989223
 20
112.4295031418773
 30
0.0
 11
25.51072170469223
 21
111.8545031418773
 31
0.0
  0
LINE
  5
8173
330
23B
100
AcDbEntity
  8
ALL_ASSEM_MEMBER
  6
Continuous
 62
     7
100
AcDbLine
 10
26.50665091909224
 20
112.4295031418773
 30
0.0
 11
26.17467451429224
 21
113.0045031418773
 31
0.0
  0
LINE
  5
8174
330
23B
100
AcDbEntity
  8
ALL_ASSEM_MEMBER
  6
Continuous
 62
     7
100
AcDbLine
 10
43.46299233739225
 20
85.06519365947727
 30
0.0
 11
43.79496874219222
 21
84.49019365947728
 31
0.0
  0
LWPOLYLINE
  5
8176
330
23B
100
AcDbEntity
  8
ALL_ASSEM_MEMBER
  6
Continuous
 62
     7
100
AcDbPolyline
 90
        9
 70
   128
 43
0.0
 10
20.88151661369224
 20
73.41448957847726
 10
20.87597524459224
 20
73.38327338777728
 10
20.87041325219224
 20
73.35269524357727
 10
20.86488434329226
 20
73.32381959727726
 10
20.85932577929225
 20
73.29705138097725
 10
20.85376721519225
 20
73.27317431217728
 10
20.84823830629225
 20
73.25285339857726
 10
20.84267631399223
 20
73.23638924247726
 10
20.83713494489223
 20
73.22436925177726
  0
LINE
  5
817E
330
23B
100
AcDbEntity
  8
ALL_ASSEM_MEMBER
  6
Continuous
 62
     7
100
AcDbLine
 10
44.45892155179223
 20
155.9965803175773
 30
0.0
 11
44.79089795659223
 21
156.5715803175773
 31
0.0
  0
LINE
  5
8180
330
23B
100
AcDbEntity
  8
ALL_ASSEM_MEMBER
  6
Continuous
 62
     7
100
AcDbLine
 10
20.64233963299225
 20
73.38531306167727
 30
0.0
 11
20.77852721579222
 21
73.41646054957727
 31
0.0
  0
LWPOLYLINE
  5
8181
330
23B
100
AcDbEntity
  8
ALL_ASSEM_MEMBER
  6
Continuous
 62
     7
100
AcDbPolyline
 90
        7
 70
   128
 43
0.0
 10
20.59980739979224
 20
73.46492509187726
 10
20.57084256369222
 20
73.45929466987727
 10
20.54410543609225
 20
73.45366424757728
 10
20.52025275699225
 20
73.44803382527726
 10
20.49987041579226
 20
73.44240340337726
 10
20.48345905239225
 20
73.43677297937725
 10
20.47142179169225
 20
73.43114256007726
  0
LINE
  5
8182
330
23B
100
AcDbEntity
  8
ALL_ASSEM_MEMBER
  6
Continuous
 62
     7
100
AcDbLine
 10
20.63028850049224
 20
73.47055551577728
 30
0.0
 11
20.59980739979224
 21
73.46492509187726
 31
0.0
  0
LINE
  5
8183
330
23B
100
AcDbEntity
  8
ALL_ASSEM_MEMBER
  6
Continuous
 62
     7
100
AcDbLine
 10
20.66153712919225
 20
73.47618593517726
 30
0.0
 11
20.63028850049224
 21
73.47055551577728
 31
0.0
  0
LINE
  5
8184
330
23B
100
AcDbEntity
  8
ALL_ASSEM_MEMBER
  6
Continuous
 62
     7
100
AcDbLine
 10
43.79496874219222
 20
84.49019365947728
 30
0.0
 11
44.45892155179223
 21
84.49019365947728
 31
0.0
  0
LINE
  5
8185
330
23B
100
AcDbEntity
  8
ALL_ASSEM_MEMBER
  6
Continuous
 62
     7
100
AcDbLine
 10
91.57400878189225
 20
84.49019365947728
 30
0.0
 11
92.23796159149225
 21
84.49019365947728
 31
0.0
  0
LINE
  5
8186
330
23B
100
AcDbEntity
  8
ALL_ASSEM_MEMBER
  6
Continuous
 62
     7
100
AcDbLine
 10
92.23796159149225
 20
85.64019365947726
 30
0.0
 11
91.57400878189225
 21
85.64019365947726
 31
0.0
  0
LINE
  5
8187
330
23B
100
AcDbEntity
  8
ALL_ASSEM_MEMBER
  6
Continuous
 62
     7
100
AcDbLine
 10
44.45892155179223
 20
85.64019365947726
 30
0.0
 11
43.79496874219222
 21
85.64019365947726
 31
0.0
  0
LINE
  5
8188
330
23B
100
AcDbEntity
  8
ALL_ASSEM_MEMBER
  6
Continuous
 62
     7
100
AcDbLine
 10
115.3713932044922
 20
73.47618593517726
 30
0.0
 11
115.4026418330922
 21
73.47055551577728
 31
0.0
  0
LINE
  5
8189
330
23B
100
AcDbEntity
  8
ALL_ASSEM_MEMBER
  6
Continuous
 62
     7
100
AcDbLine
 10
115.4026418330922
 20
73.47055551577728
 30
0.0
 11
115.4331229338922
 21
73.46492509187726
 31
0.0
  0
LWPOLYLINE
  5
818A
330
23B
100
AcDbEntity
  8
ALL_ASSEM_MEMBER
  6
Continuous
 62
     7
100
AcDbPolyline
 90
        7
 70
   128
 43
0.0
 10
115.4331229338922
 20
73.46492509187726
 10
115.4620877698922
 20
73.45929466987727
 10
115.4888248975922
 20
73.45366424757728
 10
115.5126775765922
 20
73.44803382527726
 10
115.5330599177923
 20
73.44240340337726
 10
115.5494712812923
 20
73.43677297937725
 10
115.5615085419923
 20
73.43114256007726
  0
LINE
  5
818B
330
23B
100
AcDbEntity
  8
ALL_ASSEM_MEMBER
  6
Continuous
 62
     7
100
AcDbLine
 10
115.3905907005922
 20
73.38531306167727
 30
0.0
 11
115.2544031178923
 21
73.41646054957727
 31
0.0
  0
LINE
  5
818D
330
23B
100
AcDbEntity
  8
ALL_ASSEM_MEMBER
  6
Continuous
 62
     7
100
AcDbLine
 10
44.79089795659223
 20
85.06519365947727
 30
0.0
 11
44.45892155179223
 21
85.64019365947726
 31
0.0
  0
LWPOLYLINE
  5
8195
330
23B
100
AcDbEntity
  8
ALL_ASSEM_MEMBER
  6
Continuous
 62
     7
100
AcDbPolyline
 90
        9
 70
   128
 43
0.0
 10
20.88151661369224
 20
168.2222843985773
 10
20.87597524459224
 20
168.2535005892773
 10
20.87041325219224
 20
168.2840787334773
 10
20.86488434329226
 20
168.3129543797773
 10
20.85932577929225
 20
168.3397225960773
 10
20.85376721519225
 20
168.3635996648773
 10
20.84823830629225
 20
168.3839205784773
 10
20.84267631399223
 20
168.4003847345773
 10
20.83713494489223
 20
168.4124047252773
  0
LINE
  5
8197
330
23B
100
AcDbEntity
  8
ALL_ASSEM_MEMBER
  6
Continuous
 62
     7
100
AcDbLine
 10
20.88151661369224
 20
73.41448957847726
 30
0.0
 11
20.90065615039225
 21
73.47618593517726
 31
0.0
  0
LINE
  5
8198
330
23B
100
AcDbEntity
  8
ALL_ASSEM_MEMBER
  6
Continuous
 62
     7
100
AcDbLine
 10
25.51072170469223
 20
113.0045031418773
 30
0.0
 11
25.17874529989223
 21
112.4295031418773
 31
0.0
  0
LINE
  5
8199
330
23B
100
AcDbEntity
  8
ALL_ASSEM_MEMBER
  6
Continuous
 62
     7
100
AcDbLine
 10
26.17467451429224
 20
111.8545031418773
 30
0.0
 11
26.50665091909224
 21
112.4295031418773
 31
0.0
  0
LINE
  5
819A
330
23B
100
AcDbEntity
  8
ALL_ASSEM_MEMBER
  6
Continuous
 62
     7
100
AcDbLine
 10
59.29560491529224
 20
163.5671540458773
 30
0.0
 11
58.96362851059223
 21
162.9921540458773
 31
0.0
  0
LINE
  5
819B
330
23B
100
AcDbEntity
  8
ALL_ASSEM_MEMBER
  6
Continuous
 62
     7
100
AcDbLine
 10
59.95955772489225
 20
162.4171540458773
 30
0.0
 11
60.29153412969225
 21
162.9921540458773
 31
0.0
  0
LWPOLYLINE
  5
819C
330
23B
100
AcDbEntity
  8
ALL_ASSEM_MEMBER
  6
Continuous
 62
     7
100
AcDbPolyline
 90
        7
 70
   128
 43
0.0
 10
125.2552043229923
 20
177.8993271980773
 10
125.2594457814923
 20
177.9011974072773
 10
125.2656351039922
 20
177.9030874041773
 10
125.2733752340923
 20
177.9049576199773
 10
125.2823863544922
 20
177.9068278357773
 10
125.2923861704923
 20
177.9087178326773
 10
125.3027331573923
 20
177.9105880418773
  0
LWPOLYLINE
  5
81A1
330
23B
100
AcDbEntity
  8
ALL_ASSEM_MEMBER
  6
Continuous
 62
     7
100
AcDbPolyline
 90
        7
 70
   128
 43
0.0
 10
125.2552043229923
 20
63.73744677897727
 10
125.2594457814923
 20
63.73557656977727
 10
125.2656351039922
 20
63.73368657287728
 10
125.2733752340923
 20
63.73181635707726
 10
125.2823863544922
 20
63.72994614127728
 10
125.2923861704923
 20
63.72805614437726
 10
125.3027331573923
 20
63.72618593517726
  0
LINE
  5
81A2
330
23B
100
AcDbEntity
  8
ALL_ASSEM_MEMBER
  6
Continuous
 62
     7
100
AcDbLine
 10
25.17874529989223
 20
129.2072708351773
 30
0.0
 11
25.51072170469223
 21
128.6322708351773
 31
0.0
  0
LINE
  5
81A3
330
23B
100
AcDbEntity
  8
ALL_ASSEM_MEMBER
  6
Continuous
 62
     7
100
AcDbLine
 10
26.50665091909224
 20
129.2072708351773
 30
0.0
 11
26.17467451429224
 21
129.7822708351773
 31
0.0
  0
LINE
  5
81A4
330
23B
100
AcDbEntity
  8
ALL_ASSEM_MEMBER
  6
Continuous
 62
     7
100
AcDbLine
 10
58.96362851059223
 20
78.64461993117726
 30
0.0
 11
59.29560491529224
 21
78.06961993117727
 31
0.0
  0
LINE
  5
81A5
330
23B
100
AcDbEntity
  8
ALL_ASSEM_MEMBER
  6
Continuous
 62
     7
100
AcDbLine
 10
60.29153412969225
 20
78.64461993117726
 30
0.0
 11
59.95955772489225
 21
79.21961993117728
 31
0.0
  0
LINE
  5
81A6
330
23B
100
AcDbEntity
  8
ALL_ASSEM_MEMBER
  6
Continuous
 62
     7
100
AcDbLine
 10
20.88151661369224
 20
168.2222843985773
 30
0.0
 11
20.90065615039225
 21
168.1605880418773
 31
0.0
  0
LINE
  5
81A9
330
23B
100
AcDbEntity
  8
ALL_ASSEM_MEMBER
  6
Continuous
 62
     7
100
AcDbLine
 10
31.93129543299224
 20
96.35386696867727
 30
0.0
 11
32.59524824259225
 21
96.35386696867727
 31
0.0
  0
LINE
  5
81AA
330
23B
100
AcDbEntity
  8
ALL_ASSEM_MEMBER
  6
Continuous
 62
     7
100
AcDbLine
 10
103.4376820910923
 20
96.35386696867727
 30
0.0
 11
104.1016349005923
 21
96.35386696867727
 31
0.0
  0
LINE
  5
81AB
330
23B
100
AcDbEntity
  8
ALL_ASSEM_MEMBER
  6
Continuous
 62
     7
100
AcDbLine
 10
104.1016349005923
 20
97.50386696867727
 30
0.0
 11
103.4376820910923
 21
97.50386696867727
 31
0.0
  0
LINE
  5
81AC
330
23B
100
AcDbEntity
  8
ALL_ASSEM_MEMBER
  6
Continuous
 62
     7
100
AcDbLine
 10
32.59524824259225
 20
97.50386696867727
 30
0.0
 11
31.93129543299224
 21
97.50386696867727
 31
0.0
  0
LWPOLYLINE
  5
81AD
330
23B
100
AcDbEntity
  8
ALL_ASSEM_MEMBER
  6
Continuous
 62
     7
100
AcDbPolyline
 90
        5
 70
   128
 43
0.0
 10
125.0059669370922
 20
63.67590329407727
 10
125.0538009691923
 20
63.65333120427726
 10
125.1196222097922
 20
63.61715047477728
 10
125.1854439550922
 20
63.57742820987727
 10
125.2512653581923
 20
63.53589300757727
  0
LINE
  5
81B0
330
23B
100
AcDbEntity
  8
ALL_ASSEM_MEMBER
  6
Continuous
 62
     7
100
AcDbLine
 10
31.93129543299224
 20
97.50386696867727
 30
0.0
 11
31.59931902819224
 21
96.92886696867727
 31
0.0
  0
LINE
  5
81B1
330
23B
100
AcDbEntity
  8
ALL_ASSEM_MEMBER
  6
Continuous
 62
     7
100
AcDbLine
 10
32.59524824259225
 20
96.35386696867727
 30
0.0
 11
32.92722464739225
 21
96.92886696867727
 31
0.0
  0
LWPOLYLINE
  5
81B2
330
23B
100
AcDbEntity
  8
ALL_ASSEM_MEMBER
  6
Continuous
 62
     7
100
AcDbPolyline
 90
        5
 70
   128
 43
0.0
 10
125.2512653581923
 20
178.1008809694773
 10
125.1854439569922
 20
178.0593457683773
 10
125.1196222123922
 20
178.0196235037773
 10
125.0538009723923
 20
177.9834427744773
 10
125.0059669370922
 20
177.9608706828773
  0
LINE
  5
81B3
330
23B
100
AcDbEntity
  8
ALL_ASSEM_MEMBER
  6
Continuous
 62
     7
100
AcDbLine
 10
115.3734700103923
 20
168.2973116442773
 30
0.0
 11
115.2519081800922
 21
168.2335624493773
 31
0.0
  0
LINE
  5
81B4
330
23B
100
AcDbEntity
  8
ALL_ASSEM_MEMBER
  6
Continuous
 62
     7
100
AcDbLine
 10
115.3734700103923
 20
73.33946233277726
 30
0.0
 11
115.2519081800922
 21
73.40321152777727
 31
0.0
  0
LINE
  5
81B6
330
23B
100
AcDbEntity
  8
ALL_ASSEM_MEMBER
  6
Continuous
 62
     7
100
AcDbLine
 10
31.59931902819224
 20
144.7079070083772
 30
0.0
 11
31.93129543299224
 21
144.1329070083773
 31
0.0
  0
LINE
  5
81B7
330
23B
100
AcDbEntity
  8
ALL_ASSEM_MEMBER
  6
Continuous
 62
     7
100
AcDbLine
 10
32.92722464739225
 20
144.7079070083772
 30
0.0
 11
32.59524824259225
 21
145.2829070083773
 31
0.0
  0
LINE
  5
81B8
330
23B
100
AcDbEntity
  8
ALL_ASSEM_MEMBER
  6
Continuous
 62
     7
100
AcDbLine
 10
76.07337260869224
 20
163.5671540458773
 30
0.0
 11
75.74139620399222
 21
162.9921540458773
 31
0.0
  0
LINE
  5
81B9
330
23B
100
AcDbEntity
  8
ALL_ASSEM_MEMBER
  6
Continuous
 62
     7
100
AcDbLine
 10
76.73732541829224
 20
162.4171540458773
 30
0.0
 11
77.06930182309225
 21
162.9921540458773
 31
0.0
  0
LWPOLYLINE
  5
81BC
330
23B
100
AcDbEntity
  8
ALL_ASSEM_MEMBER
  6
Continuous
 62
     7
100
AcDbPolyline
 90
        7
 70
   128
 43
0.0
 10
20.88151661369224
 20
73.41448957847726
 10
20.87412038759226
 20
73.40410562007727
 10
20.86672462129224
 20
73.39417107897728
 10
20.85932577929225
 20
73.38513002917728
 10
20.85192693719225
 20
73.37736806977728
 10
20.84453117089225
 20
73.37121911617726
 10
20.83713494489223
 20
73.36695949677727
  0
LWPOLYLINE
  5
81BD
330
23B
100
AcDbEntity
  8
ALL_ASSEM_MEMBER
  6
Continuous
 62
     7
100
AcDbPolyline
 90
        7
 70
   128
 43
0.0
 10
20.88151661369224
 20
168.2222843985773
 10
20.87412038759226
 20
168.2326683569773
 10
20.86672462129224
 20
168.2426028980773
 10
20.85932577929225
 20
168.2516439478773
 10
20.85192693719225
 20
168.2594059072773
 10
20.84453117089225
 20
168.2655548608773
 10
20.83713494489223
 20
168.2698144802773
  0
LINE
  5
81BE
330
23B
100
AcDbEntity
  8
ALL_ASSEM_MEMBER
  6
Continuous
 62
     7
100
AcDbLine
 10
75.74139620399222
 20
78.64461993117726
 30
0.0
 11
76.07337260869224
 21
78.06961993117727
 31
0.0
  0
LINE
  5
81BF
330
23B
100
AcDbEntity
  8
ALL_ASSEM_MEMBER
  6
Continuous
 62
     7
100
AcDbLine
 10
77.06930182309225
 20
78.64461993117726
 30
0.0
 11
76.73732541829224
 21
79.21961993117728
 31
0.0
  0
LWPOLYLINE
  5
81C2
330
23B
100
AcDbEntity
  8
ALL_ASSEM_MEMBER
  6
Continuous
 62
     7
100
AcDbPolyline
 90
        6
 70
   128
 43
0.0
 10
115.3713932044922
 20
168.1605880418773
 10
115.3838173644922
 20
168.1696001766773
 10
115.3954452878922
 20
168.1785984789773
 10
115.4055936973922
 20
168.1876209799773
 10
115.4135737783923
 20
168.1966192822773
 10
115.4189220387922
 20
168.2056314169773
  0
LINE
  5
81C3
330
23B
100
AcDbEntity
  8
ALL_ASSEM_MEMBER
  6
Continuous
 62
     7
100
AcDbLine
 10
25.51072170469223
 20
111.8545031418773
 30
0.0
 11
26.17467451429224
 21
111.8545031418773
 31
0.0
  0
LINE
  5
81C4
330
23B
100
AcDbEntity
  8
ALL_ASSEM_MEMBER
  6
Continuous
 62
     7
100
AcDbLine
 10
109.8582558193922
 20
111.8545031418773
 30
0.0
 11
110.5222086289922
 21
111.8545031418773
 31
0.0
  0
LINE
  5
81C5
330
23B
100
AcDbEntity
  8
ALL_ASSEM_MEMBER
  6
Continuous
 62
     7
100
AcDbLine
 10
110.5222086289922
 20
113.0045031418773
 30
0.0
 11
109.8582558193922
 21
113.0045031418773
 31
0.0
  0
LINE
  5
81C6
330
23B
100
AcDbEntity
  8
ALL_ASSEM_MEMBER
  6
Continuous
 62
     7
100
AcDbLine
 10
26.17467451429224
 20
113.0045031418773
 30
0.0
 11
25.51072170469223
 21
113.0045031418773
 31
0.0
  0
LWPOLYLINE
  5
81C7
330
23B
100
AcDbEntity
  8
ALL_ASSEM_MEMBER
  6
Continuous
 62
     7
100
AcDbPolyline
 90
        6
 70
   128
 43
0.0
 10
115.3713932044922
 20
73.47618593517726
 10
115.3838173644922
 20
73.46717380037725
 10
115.3954452878922
 20
73.45817549807728
 10
115.4055936973922
 20
73.44915299707728
 10
115.4135737783923
 20
73.44015469477728
 10
115.4189220387922
 20
73.43114256007726
  0
LINE
  5
81C8
330
23B
100
AcDbEntity
  8
ALL_ASSEM_MEMBER
  6
Continuous
 62
     7
100
AcDbLine
 10
43.79496874219222
 20
85.64019365947726
 30
0.0
 11
43.46299233739225
 21
85.06519365947727
 31
0.0
  0
LINE
  5
81C9
330
23B
100
AcDbEntity
  8
ALL_ASSEM_MEMBER
  6
Continuous
 62
     7
100
AcDbLine
 10
44.45892155179223
 20
84.49019365947728
 30
0.0
 11
44.79089795659223
 21
85.06519365947727
 31
0.0
  0
LINE
  5
81CA
330
23B
100
AcDbEntity
  8
ALL_ASSEM_MEMBER
  6
Continuous
 62
     7
100
AcDbLine
 10
115.1957953887922
 20
168.4124047252773
 30
0.0
 11
115.2001455509922
 21
168.4167575795773
 31
0.0
  0
LINE
  5
81CB
330
23B
100
AcDbEntity
  8
ALL_ASSEM_MEMBER
  6
Continuous
 62
     7
100
AcDbLine
 10
115.2213530836922
 20
168.4124047252773
 30
0.0
 11
124.8523849975923
 21
178.0493968505773
 31
0.0
  0
LINE
  5
81CC
330
23B
100
AcDbEntity
  8
ALL_ASSEM_MEMBER
  6
Continuous
 62
     7
100
AcDbLine
 10
124.8563365801922
 20
178.0533508877773
 30
0.0
 11
124.8523849975923
 21
178.0493968505773
 31
0.0
  0
LINE
  5
81CD
330
23B
100
AcDbEntity
  8
ALL_ASSEM_MEMBER
  6
Continuous
 62
     7
100
AcDbLine
 10
115.1957953887922
 20
168.2698144802773
 30
0.0
 11
115.2001455509922
 21
168.2741673345773
 31
0.0
  0
LINE
  5
81CE
330
23B
100
AcDbEntity
  8
ALL_ASSEM_MEMBER
  6
Continuous
 62
     7
100
AcDbLine
 10
20.63270048849225
 20
73.42575143647727
 30
0.0
 11
10.99041650909226
 21
63.77750028237728
 31
0.0
  0
LINE
  5
81CF
330
23B
100
AcDbEntity
  8
ALL_ASSEM_MEMBER
  6
Continuous
 62
     7
100
AcDbLine
 10
115.4002298451923
 20
168.2110225405773
 30
0.0
 11
125.0425138244922
 21
177.8592736946773
 31
0.0
  0
LINE
  5
81D0
330
23B
100
AcDbEntity
  8
ALL_ASSEM_MEMBER
  6
Continuous
 62
     7
100
AcDbLine
 10
20.83713494489223
 20
73.36695949677727
 30
0.0
 11
20.83278478269224
 21
73.36260664247726
 31
0.0
  0
LINE
  5
81D1
330
23B
100
AcDbEntity
  8
ALL_ASSEM_MEMBER
  6
Continuous
 62
     7
100
AcDbLine
 10
11.17659375339224
 20
63.58342308927726
 30
0.0
 11
11.18054533599224
 21
63.58737712647726
 31
0.0
  0
LINE
  5
81D2
330
23B
100
AcDbEntity
  8
ALL_ASSEM_MEMBER
  6
Continuous
 62
     7
100
AcDbLine
 10
20.81157724989225
 20
73.22436925177726
 30
0.0
 11
11.18054533599224
 21
63.58737712647726
 31
0.0
  0
LINE
  5
81D3
330
23B
100
AcDbEntity
  8
ALL_ASSEM_MEMBER
  6
Continuous
 62
     7
100
AcDbLine
 10
20.83713494489223
 20
73.22436925177726
 30
0.0
 11
20.83278478269224
 21
73.22001639747728
 31
0.0
  0
LINE
  5
81D4
330
23B
100
AcDbEntity
  8
ALL_ASSEM_MEMBER
  6
Continuous
 62
     7
100
AcDbLine
 10
20.47142179169225
 20
73.43114256007726
 30
0.0
 11
10.77772601059223
 21
63.73744677897727
 31
0.0
  0
LINE
  5
81D5
330
23B
100
AcDbEntity
  8
ALL_ASSEM_MEMBER
  6
Continuous
 62
     7
100
AcDbLine
 10
20.61400829479226
 20
73.43114256007726
 30
0.0
 11
10.92031251369224
 21
63.73744677897727
 31
0.0
  0
LINE
  5
81D6
330
23B
100
AcDbEntity
  8
ALL_ASSEM_MEMBER
  6
Continuous
 62
     7
100
AcDbLine
 10
115.4189220387922
 20
168.2056314169773
 30
0.0
 11
125.1126178198923
 21
177.8993271980773
 31
0.0
  0
LINE
  5
81D7
330
23B
100
AcDbEntity
  8
ALL_ASSEM_MEMBER
  6
Continuous
 62
     7
100
AcDbLine
 10
115.5615085419923
 20
168.2056314169773
 30
0.0
 11
125.2552043229923
 21
177.8993271980773
 31
0.0
  0
LINE
  5
81DC
330
23B
100
AcDbEntity
  8
ALL_ASSEM_MEMBER
  6
Continuous
 62
     7
100
AcDbLine
 10
20.47142179169225
 20
168.2056314169773
 30
0.0
 11
10.77772601059223
 21
177.8993271980773
 31
0.0
  0
LINE
  5
81DD
330
23B
100
AcDbEntity
  8
ALL_ASSEM_MEMBER
  6
Continuous
 62
     7
100
AcDbLine
 10
20.61400829479226
 20
168.2056314169773
 30
0.0
 11
10.92031251369224
 21
177.8993271980773
 31
0.0
  0
LINE
  5
81DE
330
23B
100
AcDbEntity
  8
ALL_ASSEM_MEMBER
  6
Continuous
 62
     7
100
AcDbLine
 10
115.4189220387922
 20
73.43114256007726
 30
0.0
 11
125.1126178198923
 21
63.73744677897727
 31
0.0
  0
LINE
  5
81DF
330
23B
100
AcDbEntity
  8
ALL_ASSEM_MEMBER
  6
Continuous
 62
     7
100
AcDbLine
 10
115.5615085419923
 20
73.43114256007726
 30
0.0
 11
125.2552043229923
 21
63.73744677897727
 31
0.0
  0
LINE
  5
81E0
330
23B
100
AcDbEntity
  8
ALL_ASSEM_MEMBER
  6
Continuous
 62
     7
100
AcDbLine
 10
115.1957953887922
 20
73.22436925177726
 30
0.0
 11
115.2001455509922
 21
73.22001639747728
 31
0.0
  0
LINE
  5
81E1
330
23B
100
AcDbEntity
  8
ALL_ASSEM_MEMBER
  6
Continuous
 62
     7
100
AcDbLine
 10
124.8523850019922
 20
63.58737712207727
 30
0.0
 11
115.2213530836922
 21
73.22436925177726
 31
0.0
  0
LINE
  5
81E2
330
23B
100
AcDbEntity
  8
ALL_ASSEM_MEMBER
  6
Continuous
 62
     7
100
AcDbLine
 10
124.8523850019922
 20
63.58737712207727
 30
0.0
 11
124.8563365863923
 21
63.58342308927726
 31
0.0
  0
LINE
  5
81E3
330
23B
100
AcDbEntity
  8
ALL_ASSEM_MEMBER
  6
Continuous
 62
     7
100
AcDbLine
 10
115.1957953887922
 20
73.36695949677727
 30
0.0
 11
115.2001455509922
 21
73.36260664247726
 31
0.0
  0
LINE
  5
81E4
330
23B
100
AcDbEntity
  8
ALL_ASSEM_MEMBER
  6
Continuous
 62
     7
100
AcDbLine
 10
10.99041650909226
 20
177.8592736946773
 30
0.0
 11
20.63270048849225
 21
168.2110225405773
 31
0.0
  0
LINE
  5
81E5
330
23B
100
AcDbEntity
  8
ALL_ASSEM_MEMBER
  6
Continuous
 62
     7
100
AcDbLine
 10
125.0425138244922
 20
63.77750028237728
 30
0.0
 11
115.4002298451923
 21
73.42575143647727
 31
0.0
  0
LINE
  5
81E6
330
23B
100
AcDbEntity
  8
ALL_ASSEM_MEMBER
  6
Continuous
 62
     7
100
AcDbLine
 10
20.83713494489223
 20
168.2698144802773
 30
0.0
 11
20.83278478269224
 21
168.2741673345773
 31
0.0
  0
LINE
  5
81E7
330
23B
100
AcDbEntity
  8
ALL_ASSEM_MEMBER
  6
Continuous
 62
     7
100
AcDbLine
 10
11.18054533159224
 20
178.0493968549773
 30
0.0
 11
11.17659374729226
 21
178.0533508877773
 31
0.0
  0
LINE
  5
81E8
330
23B
100
AcDbEntity
  8
ALL_ASSEM_MEMBER
  6
Continuous
 62
     7
100
AcDbLine
 10
11.18054533159224
 20
178.0493968549773
 30
0.0
 11
20.81157724989225
 21
168.4124047252773
 31
0.0
  0
LINE
  5
81E9
330
23B
100
AcDbEntity
  8
ALL_ASSEM_MEMBER
  6
Continuous
 62
     7
100
AcDbLine
 10
20.83713494489223
 20
168.4124047252773
 30
0.0
 11
20.83278478269224
 21
168.4167575795773
 31
0.0
  0
LINE
  5
81EA
330
23B
100
AcDbEntity
  8
ALL_ASSEM_MEMBER
  6
Continuous
 62
     7
100
AcDbLine
 10
43.46299233739225
 20
156.5715803175773
 30
0.0
 11
43.79496874219222
 21
155.9965803175773
 31
0.0
  0
LINE
  5
81EB
330
23B
100
AcDbEntity
  8
ALL_ASSEM_MEMBER
  6
Continuous
 62
     7
100
AcDbLine
 10
44.79089795659223
 20
156.5715803175773
 30
0.0
 11
44.45892155179223
 21
157.1465803175773
 31
0.0
  0
LINE
  5
81EC
330
23B
100
AcDbEntity
  8
ALL_ASSEM_MEMBER
  6
Continuous
 62
     7
100
AcDbLine
 10
91.57400878189225
 20
157.1465803175773
 30
0.0
 11
91.24203237709224
 21
156.5715803175773
 31
0.0
  0
LINE
  5
81ED
330
23B
100
AcDbEntity
  8
ALL_ASSEM_MEMBER
  6
Continuous
 62
     7
100
AcDbLine
 10
92.23796159149225
 20
155.9965803175773
 30
0.0
 11
92.56993799619221
 21
156.5715803175773
 31
0.0
  0
LINE
  5
81EE
330
23B
100
AcDbEntity
  8
ALL_ASSEM_MEMBER
  6
Continuous
 62
     7
100
AcDbLine
 10
91.24203237709224
 20
85.06519365947727
 30
0.0
 11
91.57400878189225
 21
84.49019365947728
 31
0.0
  0
LINE
  5
81EF
330
23B
100
AcDbEntity
  8
ALL_ASSEM_MEMBER
  6
Continuous
 62
     7
100
AcDbLine
 10
92.56993799619221
 20
85.06519365947727
 30
0.0
 11
92.23796159149225
 21
85.64019365947726
 31
0.0
  0
LWPOLYLINE
  5
81F2
330
23B
100
AcDbEntity
  8
ALL_ASSEM_MEMBER
  6
Continuous
 62
     7
100
AcDbPolyline
 90
        7
 70
   128
 43
0.0
 10
115.1514137199923
 20
168.2222843985773
 10
115.1588099459922
 20
168.2326683569773
 10
115.1662057123922
 20
168.2426028980773
 10
115.1736045543923
 20
168.2516439478773
 10
115.1810033963922
 20
168.2594059072773
 10
115.1883991627922
 20
168.2655548608773
 10
115.1957953887922
 20
168.2698144802773
  0
LWPOLYLINE
  5
81F3
330
23B
100
AcDbEntity
  8
ALL_ASSEM_MEMBER
  6
Continuous
 62
     7
100
AcDbPolyline
 90
        6
 70
   128
 43
0.0
 10
20.66153712919225
 20
73.47618593517726
 10
20.64911296919223
 20
73.46717380037725
 10
20.63748504579223
 20
73.45817549807728
 10
20.62733663619224
 20
73.44915299707728
 10
20.61935655519224
 20
73.44015469477728
 10
20.61400829479226
 20
73.43114256007726
  0
LINE
  5
81F4
330
23B
100
AcDbEntity
  8
ALL_ASSEM_MEMBER
  6
Continuous
 62
     7
100
AcDbLine
 10
25.51072170469223
 20
128.6322708351773
 30
0.0
 11
26.17467451429224
 21
128.6322708351773
 31
0.0
  0
LINE
  5
81F5
330
23B
100
AcDbEntity
  8
ALL_ASSEM_MEMBER
  6
Continuous
 62
     7
100
AcDbLine
 10
109.8582558193922
 20
128.6322708351773
 30
0.0
 11
110.5222086289922
 21
128.6322708351773
 31
0.0
  0
LINE
  5
81F6
330
23B
100
AcDbEntity
  8
ALL_ASSEM_MEMBER
  6
Continuous
 62
     7
100
AcDbLine
 10
110.5222086289922
 20
129.7822708351773
 30
0.0
 11
109.8582558193922
 21
129.7822708351773
 31
0.0
  0
LINE
  5
81F7
330
23B
100
AcDbEntity
  8
ALL_ASSEM_MEMBER
  6
Continuous
 62
     7
100
AcDbLine
 10
26.17467451429224
 20
129.7822708351773
 30
0.0
 11
25.51072170469223
 21
129.7822708351773
 31
0.0
  0
LWPOLYLINE
  5
81F8
330
23B
100
AcDbEntity
  8
ALL_ASSEM_MEMBER
  6
Continuous
 62
     7
100
AcDbPolyline
 90
        6
 70
   128
 43
0.0
 10
20.66153712919225
 20
168.1605880418773
 10
20.64911296919223
 20
168.1696001766773
 10
20.63748504579223
 20
168.1785984789773
 10
20.62733663619224
 20
168.1876209799773
 10
20.61935655519224
 20
168.1966192822773
 10
20.61400829479226
 20
168.2056314169773
  0
LWPOLYLINE
  5
81F9
330
23B
100
AcDbEntity
  8
ALL_ASSEM_MEMBER
  6
Continuous
 62
     7
100
AcDbPolyline
 90
        7
 70
   128
 43
0.0
 10
115.1514137199923
 20
73.41448957847726
 10
115.1588099459922
 20
73.40410562007727
 10
115.1662057123922
 20
73.39417107897728
 10
115.1736045543923
 20
73.38513002917728
 10
115.1810033963922
 20
73.37736806977728
 10
115.1883991627922
 20
73.37121911617726
 10
115.1957953887922
 20
73.36695949677727
  0
LINE
  5
81FC
330
23B
100
AcDbEntity
  8
ALL_ASSEM_MEMBER
  6
Continuous
 62
     7
100
AcDbLine
 10
59.29560491529224
 20
79.21961993117728
 30
0.0
 11
58.96362851059223
 21
78.64461993117726
 31
0.0
  0
LINE
  5
81FD
330
23B
100
AcDbEntity
  8
ALL_ASSEM_MEMBER
  6
Continuous
 62
     7
100
AcDbLine
 10
59.95955772489225
 20
78.06961993117727
 30
0.0
 11
60.29153412969225
 21
78.64461993117726
 31
0.0
  0
LINE
  5
81FE
330
23B
100
AcDbEntity
  8
ALL_ASSEM_MEMBER
  6
Continuous
 62
     7
100
AcDbLine
 10
58.96362851059223
 20
162.9921540458773
 30
0.0
 11
59.29560491529224
 21
162.4171540458773
 31
0.0
  0
LINE
  5
81FF
330
23B
100
AcDbEntity
  8
ALL_ASSEM_MEMBER
  6
Continuous
 62
     7
100
AcDbLine
 10
60.29153412969225
 20
162.9921540458773
 30
0.0
 11
59.95955772489225
 21
163.5671540458773
 31
0.0
  0
LINE
  5
8200
330
23B
100
AcDbEntity
  8
ALL_ASSEM_MEMBER
  6
Continuous
 62
     7
100
AcDbLine
 10
103.4376820910923
 20
145.2829070083773
 30
0.0
 11
103.1057056862923
 21
144.7079070083772
 31
0.0
  0
LINE
  5
8201
330
23B
100
AcDbEntity
  8
ALL_ASSEM_MEMBER
  6
Continuous
 62
     7
100
AcDbLine
 10
104.1016349005923
 20
144.1329070083773
 30
0.0
 11
104.4336113053923
 21
144.7079070083772
 31
0.0
  0
LWPOLYLINE
  5
8204
330
23B
100
AcDbEntity
  8
ALL_ASSEM_MEMBER
  6
Continuous
 62
     7
100
AcDbPolyline
 90
        5
 70
   128
 43
0.0
 10
10.78166497549225
 20
63.53589300757727
 10
10.84748637669225
 20
63.57742820867728
 10
10.91330812129223
 20
63.61715047327726
 10
10.97912936119224
 20
63.65333120257728
 10
11.02696339649225
 20
63.67590329417726
  0
LINE
  5
8205
330
23B
100
AcDbEntity
  8
ALL_ASSEM_MEMBER
  6
Continuous
 62
     7
100
AcDbLine
 10
20.65946032319226
 20
73.33946233277726
 30
0.0
 11
20.78102215349224
 21
73.40321152777727
 31
0.0
  0
LINE
  5
8206
330
23B
100
AcDbEntity
  8
ALL_ASSEM_MEMBER
  6
Continuous
 62
     7
100
AcDbLine
 10
31.93129543299224
 20
144.1329070083773
 30
0.0
 11
32.59524824259225
 21
144.1329070083773
 31
0.0
  0
LINE
  5
8207
330
23B
100
AcDbEntity
  8
ALL_ASSEM_MEMBER
  6
Continuous
 62
     7
100
AcDbLine
 10
103.4376820910923
 20
144.1329070083773
 30
0.0
 11
104.1016349005923
 21
144.1329070083773
 31
0.0
  0
LINE
  5
8208
330
23B
100
AcDbEntity
  8
ALL_ASSEM_MEMBER
  6
Continuous
 62
     7
100
AcDbLine
 10
20.65946032319226
 20
168.2973116442773
 30
0.0
 11
20.78102215349224
 21
168.2335624493773
 31
0.0
  0
LINE
  5
8209
330
23B
100
AcDbEntity
  8
ALL_ASSEM_MEMBER
  6
Continuous
 62
     7
100
AcDbLine
 10
103.1057056862923
 20
96.92886696867727
 30
0.0
 11
103.4376820910923
 21
96.35386696867727
 31
0.0
  0
LINE
  5
820A
330
23B
100
AcDbEntity
  8
ALL_ASSEM_MEMBER
  6
Continuous
 62
     7
100
AcDbLine
 10
104.4336113053923
 20
96.92886696867727
 30
0.0
 11
104.1016349005923
 21
97.50386696867727
 31
0.0
  0
LINE
  5
820D
330
23B
100
AcDbEntity
  8
ALL_ASSEM_MEMBER
  6
Continuous
 62
     7
100
AcDbLine
 10
76.07337260869224
 20
79.21961993117728
 30
0.0
 11
75.74139620399222
 21
78.64461993117726
 31
0.0
  0
LINE
  5
820E
330
23B
100
AcDbEntity
  8
ALL_ASSEM_MEMBER
  6
Continuous
 62
     7
100
AcDbLine
 10
76.73732541829224
 20
78.06961993117727
 30
0.0
 11
77.06930182309225
 21
78.64461993117726
 31
0.0
  0
LWPOLYLINE
  5
820F
330
23B
100
AcDbEntity
  8
ALL_ASSEM_MEMBER
  6
Continuous
 62
     7
100
AcDbPolyline
 90
        7
 70
   128
 43
0.0
 10
10.77772601059223
 20
63.73744677897727
 10
10.77348455209224
 20
63.73557656977727
 10
10.76729522959224
 20
63.73368657287728
 10
10.75955509949225
 20
63.73181635707726
 10
10.75054397909224
 20
63.72994614127728
 10
10.74054416309224
 20
63.72805614437726
 10
10.73019717619223
 20
63.72618593517726
  0
LINE
  5
8210
330
23B
100
AcDbEntity
  8
ALL_ASSEM_MEMBER
  6
Continuous
 62
     7
100
AcDbLine
 10
104.1016349005923
 20
145.2829070083773
 30
0.0
 11
103.4376820910923
 21
145.2829070083773
 31
0.0
  0
LINE
  5
8211
330
23B
100
AcDbEntity
  8
ALL_ASSEM_MEMBER
  6
Continuous
 62
     7
100
AcDbLine
 10
32.59524824259225
 20
145.2829070083773
 30
0.0
 11
31.93129543299224
 21
145.2829070083773
 31
0.0
  0
LWPOLYLINE
  5
8212
330
23B
100
AcDbEntity
  8
ALL_ASSEM_MEMBER
  6
Continuous
 62
     7
100
AcDbPolyline
 90
        7
 70
   128
 43
0.0
 10
10.77772601059223
 20
177.8993271980773
 10
10.77348455209224
 20
177.9011974072773
 10
10.76729522959224
 20
177.9030874041773
 10
10.75955509949225
 20
177.9049576199773
 10
10.75054397909224
 20
177.9068278357773
 10
10.74054416309224
 20
177.9087178326773
 10
10.73019717619223
 20
177.9105880418773
  0
LWPOLYLINE
  5
8213
330
23B
100
AcDbEntity
  8
ALL_ASSEM_MEMBER
  6
Continuous
 62
     7
100
AcDbPolyline
 90
        5
 70
   128
 43
0.0
 10
11.02696339659224
 20
177.9608706829773
 10
10.97912936449225
 20
177.9834427727773
 10
10.91330812389225
 20
178.0196235022773
 10
10.84748637859224
 20
178.0593457671773
 10
10.78166497549225
 20
178.1008809694773
  0
LINE
  5
8214
330
23B
100
AcDbEntity
  8
ALL_ASSEM_MEMBER
  6
Continuous
 62
     7
100
AcDbLine
 10
75.74139620399222
 20
162.9921540458773
 30
0.0
 11
76.07337260869224
 21
162.4171540458773
 31
0.0
  0
LINE
  5
8215
330
23B
100
AcDbEntity
  8
ALL_ASSEM_MEMBER
  6
Continuous
 62
     7
100
AcDbLine
 10
77.06930182309225
 20
162.9921540458773
 30
0.0
 11
76.73732541829224
 21
163.5671540458773
 31
0.0
  0
LINE
  5
8218
330
23B
100
AcDbEntity
  8
ALL_ASSEM_MEMBER
  6
Continuous
 62
     7
100
AcDbLine
 10
115.1514137199923
 20
168.2222843985773
 30
0.0
 11
115.1322741832923
 21
168.1605880418773
 31
0.0
  0
LINE
  5
821C
330
23B
100
AcDbEntity
  8
ALL_ASSEM_MEMBER
  6
Continuous
 62
     7
100
AcDbLine
 10
109.8582558193922
 20
129.7822708351773
 30
0.0
 11
109.5262794145922
 21
129.2072708351773
 31
0.0
  0
LINE
  5
821D
330
23B
100
AcDbEntity
  8
ALL_ASSEM_MEMBER
  6
Continuous
 62
     7
100
AcDbLine
 10
110.5222086289922
 20
128.6322708351773
 30
0.0
 11
110.8541850336922
 21
129.2072708351773
 31
0.0
  0
LINE
  5
8222
330
23B
100
AcDbEntity
  8
ALL_ASSEM_MEMBER
  6
Continuous
 62
     7
100
AcDbLine
 10
109.5262794145922
 20
112.4295031418773
 30
0.0
 11
109.8582558193922
 21
111.8545031418773
 31
0.0
  0
LINE
  5
8223
330
23B
100
AcDbEntity
  8
ALL_ASSEM_MEMBER
  6
Continuous
 62
     7
100
AcDbLine
 10
110.8541850336922
 20
112.4295031418773
 30
0.0
 11
110.5222086289922
 21
113.0045031418773
 31
0.0
  0
LINE
  5
8227
330
23B
100
AcDbEntity
  8
ALL_ASSEM_MEMBER
  6
Continuous
 62
     7
100
AcDbLine
 10
115.1514137199923
 20
73.41448957847726
 30
0.0
 11
115.1322741832923
 21
73.47618593517726
 31
0.0
  0
LWPOLYLINE
  5
822A
330
23B
100
AcDbEntity
  8
ALL_ASSEM_MEMBER
  6
Continuous
 62
     7
100
AcDbPolyline
 90
        9
 70
   128
 43
0.0
 10
115.1514137199923
 20
168.2222843985773
 10
115.1569550890923
 20
168.2535005892773
 10
115.1625170813923
 20
168.2840787334773
 10
115.1680459902922
 20
168.3129543797773
 10
115.1736045543923
 20
168.3397225960773
 10
115.1791631183922
 20
168.3635996648773
 10
115.1846920272922
 20
168.3839205784773
 10
115.1902540196922
 20
168.4003847345773
 10
115.1957953887922
 20
168.4124047252773
  0
LINE
  5
822F
330
23B
100
AcDbEntity
  8
ALL_ASSEM_MEMBER
  6
Continuous
 62
     7
100
AcDbLine
 10
91.57400878189225
 20
85.64019365947726
 30
0.0
 11
91.24203237709224
 21
85.06519365947727
 31
0.0
  0
LINE
  5
8231
330
23B
100
AcDbEntity
  8
ALL_ASSEM_MEMBER
  6
Continuous
 62
     7
100
AcDbLine
 10
92.23796159149225
 20
84.49019365947728
 30
0.0
 11
92.56993799619221
 21
85.06519365947727
 31
0.0
  0
LINE
  5
8232
330
23B
100
AcDbEntity
  8
ALL_ASSEM_MEMBER
  6
Continuous
 62
     7
100
AcDbLine
 10
109.8582558193922
 20
113.0045031418773
 30
0.0
 11
109.5262794145922
 21
112.4295031418773
 31
0.0
  0
LINE
  5
8233
330
23B
100
AcDbEntity
  8
ALL_ASSEM_MEMBER
  6
Continuous
 62
     7
100
AcDbLine
 10
115.3905907005922
 20
168.2514609153773
 30
0.0
 11
115.2544031178923
 21
168.2203134274773
 31
0.0
  0
LWPOLYLINE
  5
8234
330
23B
100
AcDbEntity
  8
ALL_ASSEM_MEMBER
  6
Continuous
 62
     7
100
AcDbPolyline
 90
        7
 70
   128
 43
0.0
 10
115.4331229338922
 20
168.1718488851773
 10
115.4620877698922
 20
168.1774793071773
 10
115.4888248975922
 20
168.1831097294773
 10
115.5126775765922
 20
168.1887401517773
 10
115.5330599177923
 20
168.1943705736773
 10
115.5494712812923
 20
168.2000009976773
 10
115.5615085419923
 20
168.2056314169773
  0
LINE
  5
8235
330
23B
100
AcDbEntity
  8
ALL_ASSEM_MEMBER
  6
Continuous
 62
     7
100
AcDbLine
 10
115.4026418330922
 20
168.1662184612773
 30
0.0
 11
115.4331229338922
 21
168.1718488851773
 31
0.0
  0
LINE
  5
8236
330
23B
100
AcDbEntity
  8
ALL_ASSEM_MEMBER
  6
Continuous
 62
     7
100
AcDbLine
 10
115.3713932044922
 20
168.1605880418773
 30
0.0
 11
115.4026418330922
 21
168.1662184612773
 31
0.0
  0
LINE
  5
8237
330
23B
100
AcDbEntity
  8
ALL_ASSEM_MEMBER
  6
Continuous
 62
     7
100
AcDbLine
 10
43.79496874219222
 20
155.9965803175773
 30
0.0
 11
44.45892155179223
 21
155.9965803175773
 31
0.0
  0
LINE
  5
8238
330
23B
100
AcDbEntity
  8
ALL_ASSEM_MEMBER
  6
Continuous
 62
     7
100
AcDbLine
 10
91.57400878189225
 20
155.9965803175773
 30
0.0
 11
92.23796159149225
 21
155.9965803175773
 31
0.0
  0
LINE
  5
8239
330
23B
100
AcDbEntity
  8
ALL_ASSEM_MEMBER
  6
Continuous
 62
     7
100
AcDbLine
 10
92.23796159149225
 20
157.1465803175773
 30
0.0
 11
91.57400878189225
 21
157.1465803175773
 31
0.0
  0
LINE
  5
823A
330
23B
100
AcDbEntity
  8
ALL_ASSEM_MEMBER
  6
Continuous
 62
     7
100
AcDbLine
 10
44.45892155179223
 20
157.1465803175773
 30
0.0
 11
43.79496874219222
 21
157.1465803175773
 31
0.0
  0
LINE
  5
823B
330
23B
100
AcDbEntity
  8
ALL_ASSEM_MEMBER
  6
Continuous
 62
     7
100
AcDbLine
 10
20.66153712919225
 20
168.1605880418773
 30
0.0
 11
20.63028850049224
 21
168.1662184612773
 31
0.0
  0
LINE
  5
823C
330
23B
100
AcDbEntity
  8
ALL_ASSEM_MEMBER
  6
Continuous
 62
     7
100
AcDbLine
 10
20.63028850049224
 20
168.1662184612773
 30
0.0
 11
20.59980739979224
 21
168.1718488851773
 31
0.0
  0
LWPOLYLINE
  5
823D
330
23B
100
AcDbEntity
  8
ALL_ASSEM_MEMBER
  6
Continuous
 62
     7
100
AcDbPolyline
 90
        7
 70
   128
 43
0.0
 10
20.59980739979224
 20
168.1718488851773
 10
20.57084256369222
 20
168.1774793071773
 10
20.54410543609225
 20
168.1831097294773
 10
20.52025275699225
 20
168.1887401517773
 10
20.49987041579226
 20
168.1943705736773
 10
20.48345905239225
 20
168.2000009976773
 10
20.47142179169225
 20
168.2056314169773
  0
LINE
  5
823E
330
23B
100
AcDbEntity
  8
ALL_ASSEM_MEMBER
  6
Continuous
 62
     7
100
AcDbLine
 10
20.64233963299225
 20
168.2514609153773
 30
0.0
 11
20.77852721579222
 21
168.2203134274773
 31
0.0
  0
LINE
  5
8240
330
23B
100
AcDbEntity
  8
ALL_ASSEM_MEMBER
  6
Continuous
 62
     7
100
AcDbLine
 10
91.24203237709224
 20
156.5715803175773
 30
0.0
 11
91.57400878189225
 21
155.9965803175773
 31
0.0
  0
LINE
  5
8242
330
23B
100
AcDbEntity
  8
ALL_ASSEM_MEMBER
  6
Continuous
 62
     7
100
AcDbLine
 10
92.56993799619221
 20
156.5715803175773
 30
0.0
 11
92.23796159149225
 21
157.1465803175773
 31
0.0
  0
LINE
  5
8243
330
23B
100
AcDbEntity
  8
ALL_ASSEM_MEMBER
  6
Continuous
 62
     7
100
AcDbLine
 10
109.5262794145922
 20
129.2072708351773
 30
0.0
 11
109.8582558193922
 21
128.6322708351773
 31
0.0
  0
LWPOLYLINE
  5
8247
330
23B
100
AcDbEntity
  8
ALL_ASSEM_MEMBER
  6
Continuous
 62
     7
100
AcDbPolyline
 90
        9
 70
   128
 43
0.0
 10
115.1514137199923
 20
73.41448957847726
 10
115.1569550890923
 20
73.38327338777728
 10
115.1625170813923
 20
73.35269524357727
 10
115.1680459902922
 20
73.32381959727726
 10
115.1736045543923
 20
73.29705138097725
 10
115.1791631183922
 20
73.27317431217728
 10
115.1846920272922
 20
73.25285339857726
 10
115.1902540196922
 20
73.23638924247726
 10
115.1957953887922
 20
73.22436925177726
  0
LINE
  5
8248
330
23B
100
AcDbEntity
  8
ALL_ASSEM_MEMBER
  6
Continuous
 62
     7
100
AcDbLine
 10
110.5222086289922
 20
111.8545031418773
 30
0.0
 11
110.8541850336922
 21
112.4295031418773
 31
0.0
  0
LINE
  5
824A
330
23B
100
AcDbEntity
  8
ALL_ASSEM_MEMBER
  6
Continuous
 62
     7
100
AcDbLine
 10
103.4376820910923
 20
97.50386696867727
 30
0.0
 11
103.1057056862923
 21
96.92886696867727
 31
0.0
  0
LINE
  5
824C
330
23B
100
AcDbEntity
  8
ALL_ASSEM_MEMBER
  6
Continuous
 62
     7
100
AcDbLine
 10
104.1016349005923
 20
96.35386696867727
 30
0.0
 11
104.4336113053923
 21
96.92886696867727
 31
0.0
  0
LINE
  5
824D
330
23B
100
AcDbEntity
  8
ALL_ASSEM_MEMBER
  6
Continuous
 62
     7
100
AcDbLine
 10
59.29560491529224
 20
162.4171540458773
 30
0.0
 11
59.95955772489225
 21
162.4171540458773
 31
0.0
  0
LINE
  5
824E
330
23B
100
AcDbEntity
  8
ALL_ASSEM_MEMBER
  6
Continuous
 62
     7
100
AcDbLine
 10
76.07337260869224
 20
162.4171540458773
 30
0.0
 11
76.73732541829224
 21
162.4171540458773
 31
0.0
  0
LINE
  5
824F
330
23B
100
AcDbEntity
  8
ALL_ASSEM_MEMBER
  6
Continuous
 62
     7
100
AcDbLine
 10
76.73732541829224
 20
163.5671540458773
 30
0.0
 11
76.07337260869224
 21
163.5671540458773
 31
0.0
  0
LINE
  5
8250
330
23B
100
AcDbEntity
  8
ALL_ASSEM_MEMBER
  6
Continuous
 62
     7
100
AcDbLine
 10
59.95955772489225
 20
163.5671540458773
 30
0.0
 11
59.29560491529224
 21
163.5671540458773
 31
0.0
  0
LINE
  5
8256
330
23B
100
AcDbEntity
  8
ALL_ASSEM_MEMBER
  6
Continuous
 62
     7
100
AcDbLine
 10
110.8541850336922
 20
129.2072708351773
 30
0.0
 11
110.5222086289922
 21
129.7822708351773
 31
0.0
  0
LINE
  5
8258
330
23B
100
AcDbEntity
  8
ALL_ASSEM_MEMBER
  6
Continuous
 62
     7
100
AcDbLine
 10
103.1057056862923
 20
144.7079070083772
 30
0.0
 11
103.4376820910923
 21
144.1329070083773
 31
0.0
  0
LINE
  5
825A
330
23B
100
AcDbEntity
  8
ALL_ASSEM_MEMBER
  6
Continuous
 62
     7
100
AcDbLine
 10
104.4336113053923
 20
144.7079070083772
 30
0.0
 11
104.1016349005923
 21
145.2829070083773
 31
0.0
  0
LINE
  5
8267
330
23B
100
AcDbEntity
  8
ALL_ASSEM_MEMBER
  6
Continuous
 62
     7
100
AcDbLine
 10
115.1957953887922
 20
168.4124047252773
 30
0.0
 11
115.1957953887922
 21
168.2698144802773
 31
0.0
  0
LINE
  5
8268
330
23B
100
AcDbEntity
  8
ALL_ASSEM_MEMBER
  6
Continuous
 62
     7
100
AcDbLine
 10
115.1957953887922
 20
73.22436925177726
 30
0.0
 11
115.1957953887922
 21
73.36695949677727
 31
0.0
  0
LINE
  5
8269
330
23B
100
AcDbEntity
  8
ALL_ASSEM_MEMBER
  6
Continuous
 62
     7
100
AcDbLine
 10
115.2001455509922
 20
168.4167575795773
 30
0.0
 11
115.2001455509922
 21
168.2741673345773
 31
0.0
  0
LINE
  5
826A
330
23B
100
AcDbEntity
  8
ALL_ASSEM_MEMBER
  6
Continuous
 62
     7
100
AcDbLine
 10
115.2001455509922
 20
73.22001639747728
 30
0.0
 11
115.2001455509922
 21
73.36260664247726
 31
0.0
  0
LINE
  5
826B
330
23B
100
AcDbEntity
  8
ALL_ASSEM_MEMBER
  6
Continuous
 62
     7
100
AcDbLine
 10
115.2213530836922
 20
168.4124047252773
 30
0.0
 11
115.2213530836922
 21
168.2698144802773
 31
0.0
  0
LINE
  5
826C
330
23B
100
AcDbEntity
  8
ALL_ASSEM_MEMBER
  6
Continuous
 62
     7
100
AcDbLine
 10
115.2213530836922
 20
73.22436925177726
 30
0.0
 11
115.2213530836922
 21
73.36695949677727
 31
0.0
  0
LINE
  5
826D
330
23B
100
AcDbEntity
  8
ALL_ASSEM_MEMBER
  6
Continuous
 62
     7
100
AcDbLine
 10
115.2576311044922
 20
168.2110225405773
 30
0.0
 11
115.2576311044922
 21
168.1605880418773
 31
0.0
  0
LINE
  5
826E
330
23B
100
AcDbEntity
  8
ALL_ASSEM_MEMBER
  6
Continuous
 62
     7
100
AcDbLine
 10
115.2576311044922
 20
73.42575143647727
 30
0.0
 11
115.2576311044922
 21
73.47618593517726
 31
0.0
  0
LINE
  5
826F
330
23B
100
AcDbEntity
  8
ALL_ASSEM_MEMBER
  6
Continuous
 62
     7
100
AcDbLine
 10
115.3713932044922
 20
168.1605880418773
 30
0.0
 11
115.3713932044922
 21
73.47618593517726
 31
0.0
  0
LINE
  5
8270
330
23B
100
AcDbEntity
  8
ALL_ASSEM_MEMBER
  6
Continuous
 62
     7
100
AcDbLine
 10
115.4002298451923
 20
168.2110225405773
 30
0.0
 11
115.4002298451923
 21
168.1828522166773
 31
0.0
  0
LINE
  5
8271
330
23B
100
AcDbEntity
  8
ALL_ASSEM_MEMBER
  6
Continuous
 62
     7
100
AcDbLine
 10
115.4002298451923
 20
73.42575143647727
 30
0.0
 11
115.4002298451923
 21
73.45392176037726
 31
0.0
  0
LINE
  5
8272
330
23B
100
AcDbEntity
  8
ALL_ASSEM_MEMBER
  6
Continuous
 62
     7
100
AcDbLine
 10
115.5615085419923
 20
168.2056314169773
 30
0.0
 11
115.5615085419923
 21
73.43114256007726
 31
0.0
  0
LWPOLYLINE
  5
8283
330
23B
100
AcDbEntity
  8
ALL_ASSEM_MEMBER
  6
Continuous
 62
     7
100
AcDbPolyline
 90
        4
 70
   128
 43
0.0
 10
125.2512653581923
 20
178.1008809694773
 10
125.1196291372922
 20
178.0805674755773
 10
124.9879727995922
 20
178.0637557911773
 10
124.8563365771923
 20
178.0533508877773
  0
LWPOLYLINE
  5
8284
330
23B
100
AcDbEntity
  8
ALL_ASSEM_MEMBER
  6
Continuous
 62
     7
100
AcDbPolyline
 90
        7
 70
   128
 43
0.0
 10
125.1126178198923
 20
177.8993271980773
 10
125.1246550813922
 20
177.9007348029773
 10
125.1410664453923
 20
177.9021424090773
 10
125.1614487861922
 20
177.9035500144773
 10
125.1853014642923
 20
177.9049576199773
 10
125.2120385906922
 20
177.9063652254773
 10
125.2410034257923
 20
177.9077728309773
  0
LINE
  5
828D
330
23B
100
AcDbEntity
  8
ALL_ASSEM_MEMBER
  6
Continuous
 62
     7
100
AcDbLine
 10
115.3713932044922
 20
168.1605880418773
 30
0.0
 11
20.66153712919225
 21
168.1605880418773
 31
0.0
  0
LINE
  5
828E
330
23B
100
AcDbEntity
  8
ALL_ASSEM_MEMBER
  6
Continuous
 62
     7
100
AcDbLine
 10
115.5615085419923
 20
168.2056314169773
 30
0.0
 11
115.4189220387922
 21
168.2056314169773
 31
0.0
  0
LINE
  5
828F
330
23B
100
AcDbEntity
  8
ALL_ASSEM_MEMBER
  6
Continuous
 62
     7
100
AcDbLine
 10
20.47142179169225
 20
168.2056314169773
 30
0.0
 11
20.61400829479226
 21
168.2056314169773
 31
0.0
  0
LINE
  5
8290
330
23B
100
AcDbEntity
  8
ALL_ASSEM_MEMBER
  6
Continuous
 62
     7
100
AcDbLine
 10
115.4002298451923
 20
168.2110225405773
 30
0.0
 11
115.2576311044922
 21
168.2110225405773
 31
0.0
  0
LINE
  5
8291
330
23B
100
AcDbEntity
  8
ALL_ASSEM_MEMBER
  6
Continuous
 62
     7
100
AcDbLine
 10
20.63270048849225
 20
168.2110225405773
 30
0.0
 11
20.77529922919223
 21
168.2110225405773
 31
0.0
  0
LINE
  5
8292
330
23B
100
AcDbEntity
  8
ALL_ASSEM_MEMBER
  6
Continuous
 62
     7
100
AcDbLine
 10
20.88151661369224
 20
168.2222843985773
 30
0.0
 11
115.1514137199923
 21
168.2222843985773
 31
0.0
  0
LINE
  5
8293
330
23B
100
AcDbEntity
  8
ALL_ASSEM_MEMBER
  6
Continuous
 62
     7
100
AcDbLine
 10
20.83713494489223
 20
168.4124047252773
 30
0.0
 11
115.1957953887922
 21
168.4124047252773
 31
0.0
  0
LWPOLYLINE
  5
829F
330
23B
100
AcDbEntity
  8
ALL_ASSEM_MEMBER
  6
Continuous
 62
     7
100
AcDbPolyline
 90
        7
 70
   128
 43
0.0
 10
10.92031251369224
 20
177.8993271980773
 10
10.90827525229224
 20
177.9007348029773
 10
10.89186388829225
 20
177.9021424090773
 10
10.87148154739225
 20
177.9035500144773
 10
10.84762886929224
 20
177.9049576199773
 10
10.82089174289223
 20
177.9063652254773
 10
10.79192690779223
 20
177.9077728309773
  0
LINE
  5
82AC
330
23B
100
AcDbEntity
  8
ALL_ASSEM_MEMBER
  6
Continuous
 62
     7
100
AcDbLine
 10
124.8563365868923
 20
63.58737712277727
 30
0.0
 11
124.8563365867922
 21
63.58342308877727
 31
0.0
  0
LINE
  5
82AD
330
23B
100
AcDbEntity
  8
ALL_ASSEM_MEMBER
  6
Continuous
 62
     7
100
AcDbLine
 10
124.8563365803922
 20
178.0533508879773
 30
0.0
 11
124.8563365807922
 21
178.0493968546773
 31
0.0
  0
LINE
  5
82AE
330
23B
100
AcDbEntity
  8
ALL_ASSEM_MEMBER
  6
Continuous
 62
     7
100
AcDbLine
 10
125.0425138244922
 20
63.80755077427727
 30
0.0
 11
125.0425138244922
 21
63.77750028237728
 31
0.0
  0
LINE
  5
82AF
330
23B
100
AcDbEntity
  8
ALL_ASSEM_MEMBER
  6
Continuous
 62
     7
100
AcDbLine
 10
125.0425138244922
 20
177.8292232027773
 30
0.0
 11
125.0425138244922
 21
177.8592736946773
 31
0.0
  0
LINE
  5
82B0
330
23B
100
AcDbEntity
  8
ALL_ASSEM_MEMBER
  6
Continuous
 62
     7
100
AcDbLine
 10
125.2512653581923
 20
181.0557967434773
 30
0.0
 11
125.2512653581923
 21
178.1008809694773
 31
0.0
  0
LINE
  5
82B1
330
23B
100
AcDbEntity
  8
ALL_ASSEM_MEMBER
  6
Continuous
 62
     7
100
AcDbLine
 10
125.2512653581923
 20
63.53589300757727
 30
0.0
 11
125.2512653581923
 21
60.58097723357727
 31
0.0
  0
LINE
  5
82B2
330
23B
100
AcDbEntity
  8
ALL_ASSEM_MEMBER
  6
Continuous
 62
     7
100
AcDbLine
 10
125.2552043229923
 20
177.8993271980773
 30
0.0
 11
125.2552043229923
 21
63.73744677897727
 31
0.0
  0
LINE
  5
82B3
330
23B
100
AcDbEntity
  8
ALL_ASSEM_MEMBER
  6
Continuous
 62
     7
100
AcDbLine
 10
125.3027331573923
 20
177.9105880418773
 30
0.0
 11
125.3027331573923
 21
63.72618593517726
 31
0.0
  0
LINE
  5
82B4
330
23B
100
AcDbEntity
  8
ALL_ASSEM_MEMBER
  6
Continuous
 62
     7
100
AcDbLine
 10
125.3027331573923
 20
60.57618593517728
 30
0.0
 11
125.3027331573923
 21
63.72618593517726
 31
0.0
  0
LINE
  5
82B5
330
23B
100
AcDbEntity
  8
ALL_ASSEM_MEMBER
  6
Continuous
 62
     7
100
AcDbLine
 10
125.3027331573923
 20
177.9105880418773
 30
0.0
 11
125.3027331573923
 21
181.0605880418773
 31
0.0
  0
LWPOLYLINE
  5
82C6
330
23B
100
AcDbEntity
  8
ALL_ASSEM_MEMBER
  6
Continuous
 62
     7
100
AcDbPolyline
 90
        4
 70
   128
 43
0.0
 10
115.2544031178923
 20
73.41646054957727
 10
115.2538544529922
 20
73.41194461637727
 10
115.2530192683923
 20
73.40752039107727
 10
115.2519081800922
 20
73.40321152777727
  0
LWPOLYLINE
  5
82C7
330
23B
100
AcDbEntity
  8
ALL_ASSEM_MEMBER
  6
Continuous
 62
     7
100
AcDbPolyline
 90
        8
 70
   128
 43
0.0
 10
20.81157724989225
 20
168.4124047252773
 10
20.78545903029226
 20
168.4063421440773
 10
20.75987037509225
 20
168.3963822884773
 10
20.73550548289225
 20
168.3827623845773
 10
20.71273859939225
 20
168.3656437295773
 10
20.69223215789225
 20
168.3454744788773
 10
20.67430495659224
 20
168.3225100469773
 10
20.65946032319226
 20
168.2973116442773
  0
LINE
  5
82C8
330
23B
100
AcDbEntity
  8
ALL_ASSEM_MEMBER
  6
Continuous
 62
     7
100
AcDbLine
 10
20.81157724989225
 20
168.2698144802773
 30
0.0
 11
20.83278478269224
 21
168.2741673345773
 31
0.0
  0
LINE
  5
82C9
330
23B
100
AcDbEntity
  8
ALL_ASSEM_MEMBER
  6
Continuous
 62
     7
100
AcDbLine
 10
20.81157724989225
 20
168.4124047252773
 30
0.0
 11
20.83278478269224
 21
168.4167575795773
 31
0.0
  0
LINE
  5
82CA
330
23B
100
AcDbEntity
  8
ALL_ASSEM_MEMBER
  6
Continuous
 62
     7
100
AcDbLine
 10
125.2410034257923
 20
177.9077728309773
 30
0.0
 11
125.3027331573923
 21
177.9105880418773
 31
0.0
  0
LINE
  5
82D7
330
23B
100
AcDbEntity
  8
ALL_ASSEM_MEMBER
  6
Continuous
 62
     7
100
AcDbLine
 10
125.2552043229923
 20
177.8993271980773
 30
0.0
 11
125.1126178198923
 21
177.8993271980773
 31
0.0
  0
LINE
  5
82D8
330
23B
100
AcDbEntity
  8
ALL_ASSEM_MEMBER
  6
Continuous
 62
     7
100
AcDbLine
 10
10.77772601059223
 20
177.8993271980773
 30
0.0
 11
10.92031251369224
 21
177.8993271980773
 31
0.0
  0
LINE
  5
82D9
330
23B
100
AcDbEntity
  8
ALL_ASSEM_MEMBER
  6
Continuous
 62
     7
100
AcDbLine
 10
11.17659374729226
 20
178.0533508877773
 30
0.0
 11
124.8563365801922
 21
178.0533508877773
 31
0.0
  0
LINE
  5
82DA
330
23B
100
AcDbEntity
  8
ALL_ASSEM_MEMBER
  6
Continuous
 62
     7
100
AcDbLine
 10
10.78166497549225
 20
178.1008809694773
 30
0.0
 11
125.2512653581923
 21
178.1008809694773
 31
0.0
  0
LINE
  5
82E0
330
23B
100
AcDbEntity
  8
ALL_ASSEM_MEMBER
  6
Continuous
 62
     7
100
AcDbLine
 10
10.79192690779223
 20
177.9077728309773
 30
0.0
 11
10.73019717619223
 21
177.9105880418773
 31
0.0
  0
LWPOLYLINE
  5
82E1
330
23B
100
AcDbEntity
  8
ALL_ASSEM_MEMBER
  6
Continuous
 62
     7
100
AcDbPolyline
 90
        4
 70
   128
 43
0.0
 10
11.17659375649225
 20
178.0533508877773
 10
11.04495753189224
 20
178.0637557913773
 10
10.91330119529223
 20
178.0805674757773
 10
10.78166497549225
 20
178.1008809694773
  0
LINE
  5
82E2
330
23B
100
AcDbEntity
  8
ALL_ASSEM_MEMBER
  6
Continuous
 62
     7
100
AcDbLine
 10
115.2213530836922
 20
168.2698144802773
 30
0.0
 11
115.2001455509922
 21
168.2741673345773
 31
0.0
  0
LINE
  5
82E3
330
23B
100
AcDbEntity
  8
ALL_ASSEM_MEMBER
  6
Continuous
 62
     7
100
AcDbLine
 10
115.2213530836922
 20
168.4124047252773
 30
0.0
 11
115.2001455509922
 21
168.4167575795773
 31
0.0
  0
LWPOLYLINE
  5
82E4
330
23B
100
AcDbEntity
  8
ALL_ASSEM_MEMBER
  6
Continuous
 62
     7
100
AcDbPolyline
 90
        8
 70
   128
 43
0.0
 10
115.2213530836922
 20
168.4124047252773
 10
115.2474713033923
 20
168.4063421440773
 10
115.2730599585922
 20
168.3963822884773
 10
115.2974248507923
 20
168.3827623845773
 10
115.3201917342922
 20
168.3656437295773
 10
115.3406981756922
 20
168.3454744788773
 10
115.3586253770922
 20
168.3225100469773
 10
115.3734700103923
 20
168.2973116442773
  0
LWPOLYLINE
  5
82E5
330
23B
100
AcDbEntity
  8
ALL_ASSEM_MEMBER
  6
Continuous
 62
     7
100
AcDbPolyline
 90
        4
 70
   128
 43
0.0
 10
115.2544031178923
 20
168.2203134274773
 10
115.2538544529922
 20
168.2248293606773
 10
115.2530192683923
 20
168.2292535859773
 10
115.2519081800922
 20
168.2335624493773
  0
LINE
  5
82E6
330
23B
100
AcDbEntity
  8
ALL_ASSEM_MEMBER
  6
Continuous
 62
     7
100
AcDbLine
 10
128.2664651667922
 20
60.57618593517728
 30
0.0
 11
128.2664651667922
 21
181.0605880418773
 31
0.0
  0
LWPOLYLINE
  5
82E7
330
23B
100
AcDbEntity
  8
ALL_ASSEM_MEMBER
  6
Continuous
 62
     7
100
AcDbPolyline
 90
        4
 70
   128
 43
0.0
 10
115.3905907005922
 20
73.38531306167727
 10
115.3860157230923
 20
73.36963110587726
 10
115.3802946824922
 20
73.35431600907728
 10
115.3734700103923
 20
73.33946233277726
  0
LWPOLYLINE
  5
82EA
330
23B
100
AcDbEntity
  8
ALL_ASSEM_MEMBER
  6
Continuous
 62
     7
100
AcDbPolyline
 90
        4
 70
   128
 43
0.0
 10
115.3905907005922
 20
73.38531306167727
 10
115.3947981138923
 20
73.39866880917728
 10
115.3980162384922
 20
73.41217293027725
 10
115.4002298451923
 20
73.42575143647727
  0
LWPOLYLINE
  5
82EC
330
23B
100
AcDbEntity
  8
ALL_ASSEM_MEMBER
  6
Continuous
 62
     7
100
AcDbPolyline
 90
        4
 70
   128
 43
0.0
 10
115.2544031178923
 20
73.41646054957727
 10
115.2557277046922
 20
73.41952658417728
 10
115.2568049692922
 20
73.42262971217727
 10
115.2576311044922
 20
73.42575143647727
  0
LINE
  5
82ED
330
23B
100
AcDbEntity
  8
ALL_ASSEM_MEMBER
  6
Continuous
 62
     7
100
AcDbLine
 10
125.2512653581923
 20
181.0557967434773
 30
0.0
 11
10.78166497549225
 21
181.0557967434773
 31
0.0
  0
LINE
  5
82EE
330
23B
100
AcDbEntity
  8
ALL_ASSEM_MEMBER
  6
Continuous
 62
     7
100
AcDbLine
 10
7.766465166792244
 20
181.0605880418773
 30
0.0
 11
10.73019717619223
 21
181.0605880418773
 31
0.0
  0
LINE
  5
82EF
330
23B
100
AcDbEntity
  8
ALL_ASSEM_MEMBER
  6
Continuous
 62
     7
100
AcDbLine
 10
125.3027331573923
 20
181.0605880418773
 30
0.0
 11
128.2664651667922
 21
181.0605880418773
 31
0.0
  0
LWPOLYLINE
  5
82F1
330
23B
100
AcDbEntity
  8
ALL_ASSEM_MEMBER
  6
Continuous
 62
     7
100
AcDbPolyline
 90
        4
 70
   128
 43
0.0
 10
115.2544031178923
 20
168.2203134274773
 10
115.2557277046922
 20
168.2172473928773
 10
115.2568049692922
 20
168.2141442648773
 10
115.2576311044922
 20
168.2110225405773
  0
LWPOLYLINE
  5
82F3
330
23B
100
AcDbEntity
  8
ALL_ASSEM_MEMBER
  6
Continuous
 62
     7
100
AcDbPolyline
 90
        4
 70
   128
 43
0.0
 10
115.3905907005922
 20
168.2514609153773
 10
115.3947981138923
 20
168.2381051678773
 10
115.3980162384922
 20
168.2246010467773
 10
115.4002298451923
 20
168.2110225405773
  0
LWPOLYLINE
  5
82F6
330
23B
100
AcDbEntity
  8
ALL_ASSEM_MEMBER
  6
Continuous
 62
     7
100
AcDbPolyline
 90
        4
 70
   128
 43
0.0
 10
115.3905907005922
 20
168.2514609153773
 10
115.3860157230923
 20
168.2671428711773
 10
115.3802946824922
 20
168.2824579679773
 10
115.3734700103923
 20
168.2973116442773
  0
LWPOLYLINE
  5
82F7
330
23B
100
AcDbEntity
  8
ALL_ASSEM_MEMBER
  6
Continuous
 62
     7
100
AcDbPolyline
 90
       10
 70
   128
 43
0.0
 10
125.0425138244922
 20
63.77750028237728
 10
125.0383709872922
 20
63.74882425447728
 10
125.0300165104922
 20
63.72070482437726
 10
125.0177171597923
 20
63.69406721567728
 10
125.0018639059923
 20
63.66956067927728
 10
124.9825617361923
 20
63.64732680277726
 10
124.9603271064922
 20
63.62802525567727
 10
124.9358198910923
 20
63.61217262217727
 10
124.9091816705922
 20
63.59987382267727
 10
124.8810615561923
 20
63.59151972087727
  0
LWPOLYLINE
  5
82FB
330
23B
100
AcDbEntity
  8
ALL_ASSEM_MEMBER
  6
Continuous
 62
     7
100
AcDbPolyline
 90
        6
 70
   128
 43
0.0
 10
115.2213530836922
 20
73.36695949677727
 10
115.2289730997923
 20
73.37085306627728
 10
115.2361926691922
 20
73.37660831697727
 10
115.2426506468923
 20
73.38408771427726
 10
115.2479849007922
 20
73.39304310547726
 10
115.2519081800922
 20
73.40321152777727
  0
LINE
  5
82FC
330
23B
100
AcDbEntity
  8
ALL_ASSEM_MEMBER
  6
Continuous
 62
     7
100
AcDbLine
 10
11.15186877739225
 20
178.0452542561773
 30
0.0
 11
11.18054533239223
 21
178.0493968541773
 31
0.0
  0
LINE
  5
82FD
330
23B
100
AcDbEntity
  8
ALL_ASSEM_MEMBER
  6
Continuous
 62
     7
100
AcDbLine
 10
124.8810615561923
 20
178.0452542561773
 30
0.0
 11
124.8523850012922
 21
178.0493968541773
 31
0.0
  0
LWPOLYLINE
  5
82FE
330
23B
100
AcDbEntity
  8
ALL_ASSEM_MEMBER
  6
Continuous
 62
     7
100
AcDbPolyline
 90
        6
 70
   128
 43
0.0
 10
115.2213530836922
 20
168.2698144802773
 10
115.2289730997923
 20
168.2659209107773
 10
115.2361926691922
 20
168.2601656600773
 10
115.2426506468923
 20
168.2526862627773
 10
115.2479849007922
 20
168.2437308715773
 10
115.2519081800922
 20
168.2335624493773
  0
LWPOLYLINE
  5
8302
330
23B
100
AcDbEntity
  8
ALL_ASSEM_MEMBER
  6
Continuous
 62
     7
100
AcDbPolyline
 90
       10
 70
   128
 43
0.0
 10
125.0425138244922
 20
177.8592736946773
 10
125.0383709872922
 20
177.8879497225773
 10
125.0300165104922
 20
177.9160691526773
 10
125.0177171597923
 20
177.9427067613773
 10
125.0018639059923
 20
177.9672132977773
 10
124.9825617361923
 20
177.9894471742773
 10
124.9603271064922
 20
178.0087487213773
 10
124.9358198910923
 20
178.0246013548773
 10
124.9091816705922
 20
178.0369001543773
 10
124.8810615561923
 20
178.0452542561773
  0
CIRCLE
  5
8337
330
23B
100
AcDbEntity
  8
ALL_ASSEM_MEMBER
  6
Continuous
 62
     7
100
AcDbCircle
 10
9.316465166792227
 20
62.11838698857727
 30
0.0
 40
0.45
  0
CIRCLE
  5
833E
330
23B
100
AcDbEntity
  8
ALL_ASSEM_MEMBER
  6
Continuous
 62
     7
100
AcDbCircle
 10
9.316465166792227
 20
88.81838698857726
 30
0.0
 40
0.45
  0
CIRCLE
  5
834E
330
23B
100
AcDbEntity
  8
ALL_ASSEM_MEMBER
  6
Continuous
 62
     7
100
AcDbCircle
 10
9.316465166792227
 20
120.8183869885773
 30
0.0
 40
0.45
  0
CIRCLE
  5
8352
330
23B
100
AcDbEntity
  8
ALL_ASSEM_MEMBER
  6
Continuous
 62
     7
100
AcDbCircle
 10
9.316465166792227
 20
152.8183869885773
 30
0.0
 40
0.45
  0
CIRCLE
  5
8353
330
23B
100
AcDbEntity
  8
ALL_ASSEM_MEMBER
  6
Continuous
 62
     7
100
AcDbCircle
 10
9.316465166792227
 20
179.5183869885773
 30
0.0
 40
0.45
  0
CIRCLE
  5
836C
330
23B
100
AcDbEntity
  8
ALL_ASSEM_MEMBER
  6
Continuous
 62
     7
100
AcDbCircle
 10
126.7164651667923
 20
62.11838698857727
 30
0.0
 40
0.45
  0
CIRCLE
  5
8374
330
23B
100
AcDbEntity
  8
ALL_ASSEM_MEMBER
  6
Continuous
 62
     7
100
AcDbCircle
 10
126.7164651667923
 20
88.81838698857726
 30
0.0
 40
0.45
  0
CIRCLE
  5
8378
330
23B
100
AcDbEntity
  8
ALL_ASSEM_MEMBER
  6
Continuous
 62
     7
100
AcDbCircle
 10
68.01646516679224
 20
120.8183869885773
 30
0.0
 40
40.0
  0
CIRCLE
  5
8386
330
23B
100
AcDbEntity
  8
ALL_ASSEM_MEMBER
  6
Continuous
 62
     7
100
AcDbCircle
 10
126.7164651667923
 20
120.8183869885773
 30
0.0
 40
0.45
  0
CIRCLE
  5
838B
330
23B
100
AcDbEntity
  8
ALL_ASSEM_MEMBER
  6
Continuous
 62
     7
100
AcDbCircle
 10
126.7164651667923
 20
152.8183869885773
 30
0.0
 40
0.45
  0
CIRCLE
  5
838C
330
23B
100
AcDbEntity
  8
ALL_ASSEM_MEMBER
  6
Continuous
 62
     7
100
AcDbCircle
 10
126.7164651667923
 20
179.5183869885773
 30
0.0
 40
0.45
  0
LINE
  5
8392
330
23B
100
AcDbEntity
  8
ALL_ASSEM_MEMBER
  6
Continuous
 62
     7
100
AcDbLine
 10
7.766465166792244
 20
223.3725301162573
 30
0.0
 11
7.766465166792244
 21
223.5225301162573
 31
0.0
  0
LINE
  5
8393
330
23B
100
AcDbEntity
  8
ALL_ASSEM_MEMBER
  6
Continuous
 62
     7
100
AcDbLine
 10
10.73019717619223
 20
223.3725301162573
 30
0.0
 11
10.73019717619223
 21
223.5225301162573
 31
0.0
  0
LINE
  5
8394
330
23B
100
AcDbEntity
  8
ALL_ASSEM_MEMBER
  6
Continuous
 62
     7
100
AcDbLine
 10
10.78166497549225
 20
223.3690921395573
 30
0.0
 11
10.78166497549225
 21
223.5190921395573
 31
0.0
  0
LINE
  5
83A1
330
23B
100
AcDbEntity
  8
ALL_ASSEM_MEMBER
  6
Continuous
 62
     7
100
AcDbLine
 10
20.47142179169225
 20
193.6604321417573
 30
0.0
 11
10.77772601059223
 21
223.3380546099573
 31
0.0
  0
LINE
  5
83E1
330
23B
100
AcDbEntity
  8
ALL_ASSEM_MEMBER
  6
Continuous
 62
     7
100
AcDbLine
 10
128.2664651667922
 20
223.5225301162573
 30
0.0
 11
125.3027331573923
 21
223.5225301162573
 31
0.0
  0
LINE
  5
83E2
330
23B
100
AcDbEntity
  8
ALL_ASSEM_MEMBER
  6
Continuous
 62
     7
100
AcDbLine
 10
10.73019717619223
 20
223.5225301162573
 30
0.0
 11
7.766465166792244
 21
223.5225301162573
 31
0.0
  0
LINE
  5
83E3
330
23B
100
AcDbEntity
  8
ALL_ASSEM_MEMBER
  6
Continuous
 62
     7
100
AcDbLine
 10
125.2512653581923
 20
223.5190921395573
 30
0.0
 11
10.78166497549225
 21
223.5190921395573
 31
0.0
  0
LINE
  5
83E4
330
23B
100
AcDbEntity
  8
ALL_ASSEM_MEMBER
  6
Continuous
 62
     7
100
AcDbLine
 10
128.2664651667922
 20
223.3725301162573
 30
0.0
 11
125.3027331573923
 21
223.3725301162573
 31
0.0
  0
LINE
  5
83E5
330
23B
100
AcDbEntity
  8
ALL_ASSEM_MEMBER
  6
Continuous
 62
     7
100
AcDbLine
 10
10.73019717619223
 20
223.3725301162573
 30
0.0
 11
7.766465166792244
 21
223.3725301162573
 31
0.0
  0
LINE
  5
83E6
330
23B
100
AcDbEntity
  8
ALL_ASSEM_MEMBER
  6
Continuous
 62
     7
100
AcDbLine
 10
10.74841743925867
 20
223.3690921395573
 30
0.0
 11
125.2845128943258
 21
223.3690921395573
 31
0.0
  0
LINE
  5
8426
330
23B
100
AcDbEntity
  8
ALL_ASSEM_MEMBER
  6
Continuous
 62
     7
100
AcDbLine
 10
115.3713932044922
 20
193.5225301162573
 30
0.0
 11
20.66153712919225
 21
193.5225301162573
 31
0.0
  0
LINE
  5
8490
330
23B
100
AcDbEntity
  8
ALL_ASSEM_MEMBER
  6
Continuous
 62
     7
100
AcDbLine
 10
115.5615085419923
 20
193.6604321417573
 30
0.0
 11
125.2552043229923
 21
223.3380546099573
 31
0.0
  0
LINE
  5
849D
330
23B
100
AcDbEntity
  8
ALL_ASSEM_MEMBER
  6
Continuous
 62
     7
100
AcDbLine
 10
125.2512653581923
 20
223.3690921395573
 30
0.0
 11
125.2512653581923
 21
223.5190921395573
 31
0.0
  0
LINE
  5
849E
330
23B
100
AcDbEntity
  8
ALL_ASSEM_MEMBER
  6
Continuous
 62
     7
100
AcDbLine
 10
125.3027331573923
 20
223.3725301162573
 30
0.0
 11
125.3027331573923
 21
223.5225301162573
 31
0.0
  0
LINE
  5
849F
330
23B
100
AcDbEntity
  8
ALL_ASSEM_MEMBER
  6
Continuous
 62
     7
100
AcDbLine
 10
128.2664651667922
 20
223.3725301162573
 30
0.0
 11
128.2664651667922
 21
223.5225301162573
 31
0.0
  0
ARC
  5
84A0
330
23B
100
AcDbEntity
  8
ALL_ASSEM_MEMBER
  6
Continuous
 62
     7
100
AcDbCircle
 10
10.73019717619223
 20
223.3225301162573
 30
0.0
 40
0.2
100
AcDbArc
 50
75.04844353439596
 51
90.0
  0
ARC
  5
84A5
330
23B
100
AcDbEntity
  8
ALL_ASSEM_MEMBER
  6
Continuous
 62
     7
100
AcDbCircle
 10
10.73019717619223
 20
223.3225301162573
 30
0.0
 40
0.05
100
AcDbArc
 50
18.0887549725283
 51
90.0
  0
ARC
  5
84A6
330
23B
100
AcDbEntity
  8
ALL_ASSEM_MEMBER
  6
Continuous
 62
     7
100
AcDbCircle
 10
20.66153712919225
 20
193.7225301162573
 30
0.0
 40
0.2
100
AcDbArc
 50
198.0887549725115
 51
270.0
  0
ARC
  5
84B8
330
23B
100
AcDbEntity
  8
ALL_ASSEM_MEMBER
  6
Continuous
 62
     7
100
AcDbCircle
 10
125.3027331573923
 20
223.3225301162573
 30
0.0
 40
0.2
100
AcDbArc
 50
90.0
 51
104.951556473005
  0
ARC
  5
84BD
330
23B
100
AcDbEntity
  8
ALL_ASSEM_MEMBER
  6
Continuous
 62
     7
100
AcDbCircle
 10
125.3027331573923
 20
223.3225301162573
 30
0.0
 40
0.05
100
AcDbArc
 50
90.0
 51
161.9112450274692
  0
ARC
  5
84BE
330
23B
100
AcDbEntity
  8
ALL_ASSEM_MEMBER
  6
Continuous
 62
     7
100
AcDbCircle
 10
115.3713932044922
 20
193.7225301162573
 30
0.0
 40
0.2
100
AcDbArc
 50
270.0
 51
341.9112450274885
  0
LINE
  5
84D0
330
23B
100
AcDbEntity
  8
02___PRT_ALL_AXES
  6
CENTER
 62
     2
100
AcDbLine
 10
68.01646516684224
 20
192.5225301162573
 30
0.0
 11
68.01646516684224
 21
224.5190921395573
 31
0.0
  0
LINE
  5
84D1
330
23B
100
AcDbEntity
  8
0
100
AcDbLine
 10
68.01646516684224
 20
223.5190921395573
 30
0.0
 11
68.01646516684224
 21
223.5190921395573
 31
0.0
  0
CIRCLE
  5
84E4
330
23B
100
AcDbEntity
  8
ALL_ASSEM_MEMBER
  6
Continuous
 62
     7
100
AcDbCircle
 10
25.84269810949223
 20
129.2072708351773
 30
0.0
 40
0.325
  0
ARC
  5
84E5
330
23B
100
AcDbEntity
  8
ALL_ASSEM_MEMBER
  6
Continuous
 62
     7
100
AcDbCircle
 10
25.84269810949223
 20
129.2072708351773
 30
0.0
 40
0.4
100
AcDbArc
 50
270.0
 51
180.0
  0
CIRCLE
  5
84E6
330
23B
100
AcDbEntity
  8
ALL_ASSEM_MEMBER
  6
Continuous
 62
     7
100
AcDbCircle
 10
32.26327183779225
 20
144.7079070083772
 30
0.0
 40
0.325
  0
ARC
  5
84E7
330
23B
100
AcDbEntity
  8
ALL_ASSEM_MEMBER
  6
Continuous
 62
     7
100
AcDbCircle
 10
32.26327183779225
 20
144.7079070083772
 30
0.0
 40
0.4
100
AcDbArc
 50
270.0
 51
180.0
  0
CIRCLE
  5
84E8
330
23B
100
AcDbEntity
  8
ALL_ASSEM_MEMBER
  6
Continuous
 62
     7
100
AcDbCircle
 10
44.12694514699223
 20
156.5715803175773
 30
0.0
 40
0.325
  0
ARC
  5
84E9
330
23B
100
AcDbEntity
  8
ALL_ASSEM_MEMBER
  6
Continuous
 62
     7
100
AcDbCircle
 10
44.12694514699223
 20
156.5715803175773
 30
0.0
 40
0.4
100
AcDbArc
 50
270.0
 51
180.0
  0
CIRCLE
  5
84EA
330
23B
100
AcDbEntity
  8
ALL_ASSEM_MEMBER
  6
Continuous
 62
     7
100
AcDbCircle
 10
59.62758132009225
 20
162.9921540458773
 30
0.0
 40
0.325
  0
ARC
  5
84EB
330
23B
100
AcDbEntity
  8
ALL_ASSEM_MEMBER
  6
Continuous
 62
     7
100
AcDbCircle
 10
59.62758132009225
 20
162.9921540458773
 30
0.0
 40
0.4
100
AcDbArc
 50
270.0
 51
180.0
  0
CIRCLE
  5
84EC
330
23B
100
AcDbEntity
  8
ALL_ASSEM_MEMBER
  6
Continuous
 62
     7
100
AcDbCircle
 10
76.40534901349224
 20
162.9921540458773
 30
0.0
 40
0.325
  0
ARC
  5
84ED
330
23B
100
AcDbEntity
  8
ALL_ASSEM_MEMBER
  6
Continuous
 62
     7
100
AcDbCircle
 10
76.40534901349224
 20
162.9921540458773
 30
0.0
 40
0.4
100
AcDbArc
 50
270.0
 51
180.0
  0
CIRCLE
  5
84EE
330
23B
100
AcDbEntity
  8
ALL_ASSEM_MEMBER
  6
Continuous
 62
     7
100
AcDbCircle
 10
91.90598518669225
 20
156.5715803175773
 30
0.0
 40
0.325
  0
ARC
  5
84EF
330
23B
100
AcDbEntity
  8
ALL_ASSEM_MEMBER
  6
Continuous
 62
     7
100
AcDbCircle
 10
91.90598518669225
 20
156.5715803175773
 30
0.0
 40
0.4
100
AcDbArc
 50
270.0
 51
180.0
  0
CIRCLE
  5
84F0
330
23B
100
AcDbEntity
  8
ALL_ASSEM_MEMBER
  6
Continuous
 62
     7
100
AcDbCircle
 10
103.7696584957923
 20
144.7079070083772
 30
0.0
 40
0.325
  0
ARC
  5
84F1
330
23B
100
AcDbEntity
  8
ALL_ASSEM_MEMBER
  6
Continuous
 62
     7
100
AcDbCircle
 10
103.7696584957923
 20
144.7079070083772
 30
0.0
 40
0.4
100
AcDbArc
 50
270.0
 51
180.0
  0
CIRCLE
  5
84F2
330
23B
100
AcDbEntity
  8
ALL_ASSEM_MEMBER
  6
Continuous
 62
     7
100
AcDbCircle
 10
110.1902322241922
 20
129.2072708351773
 30
0.0
 40
0.325
  0
ARC
  5
84F3
330
23B
100
AcDbEntity
  8
ALL_ASSEM_MEMBER
  6
Continuous
 62
     7
100
AcDbCircle
 10
110.1902322241922
 20
129.2072708351773
 30
0.0
 40
0.4
100
AcDbArc
 50
270.0
 51
180.0
  0
CIRCLE
  5
84F6
330
23B
100
AcDbEntity
  8
ALL_ASSEM_MEMBER
  6
Continuous
 62
     7
100
AcDbCircle
 10
110.1902322241922
 20
112.4295031418773
 30
0.0
 40
0.325
  0
ARC
  5
84F7
330
23B
100
AcDbEntity
  8
ALL_ASSEM_MEMBER
  6
Continuous
 62
     7
100
AcDbCircle
 10
110.1902322241922
 20
112.4295031418773
 30
0.0
 40
0.4
100
AcDbArc
 50
270.0
 51
180.0
  0
CIRCLE
  5
84F8
330
23B
100
AcDbEntity
  8
ALL_ASSEM_MEMBER
  6
Continuous
 62
     7
100
AcDbCircle
 10
103.7696584957923
 20
96.92886696867727
 30
0.0
 40
0.325
  0
ARC
  5
84F9
330
23B
100
AcDbEntity
  8
ALL_ASSEM_MEMBER
  6
Continuous
 62
     7
100
AcDbCircle
 10
103.7696584957923
 20
96.92886696867727
 30
0.0
 40
0.4
100
AcDbArc
 50
270.0
 51
180.0
  0
CIRCLE
  5
84FA
330
23B
100
AcDbEntity
  8
ALL_ASSEM_MEMBER
  6
Continuous
 62
     7
100
AcDbCircle
 10
91.90598518669225
 20
85.06519365947727
 30
0.0
 40
0.325
  0
ARC
  5
84FB
330
23B
100
AcDbEntity
  8
ALL_ASSEM_MEMBER
  6
Continuous
 62
     7
100
AcDbCircle
 10
91.90598518669225
 20
85.06519365947727
 30
0.0
 40
0.4
100
AcDbArc
 50
270.0
 51
180.0
  0
CIRCLE
  5
84FC
330
23B
100
AcDbEntity
  8
ALL_ASSEM_MEMBER
  6
Continuous
 62
     7
100
AcDbCircle
 10
76.40534901349224
 20
78.64461993117726
 30
0.0
 40
0.325
  0
ARC
  5
84FD
330
23B
100
AcDbEntity
  8
ALL_ASSEM_MEMBER
  6
Continuous
 62
     7
100
AcDbCircle
 10
76.40534901349224
 20
78.64461993117726
 30
0.0
 40
0.4
100
AcDbArc
 50
270.0
 51
180.0
  0
CIRCLE
  5
84FE
330
23B
100
AcDbEntity
  8
ALL_ASSEM_MEMBER
  6
Continuous
 62
     7
100
AcDbCircle
 10
59.62758132009225
 20
78.64461993117726
 30
0.0
 40
0.325
  0
ARC
  5
84FF
330
23B
100
AcDbEntity
  8
ALL_ASSEM_MEMBER
  6
Continuous
 62
     7
100
AcDbCircle
 10
59.62758132009225
 20
78.64461993117726
 30
0.0
 40
0.4
100
AcDbArc
 50
270.0
 51
180.0
  0
CIRCLE
  5
8500
330
23B
100
AcDbEntity
  8
ALL_ASSEM_MEMBER
  6
Continuous
 62
     7
100
AcDbCircle
 10
44.12694514699223
 20
85.06519365947727
 30
0.0
 40
0.325
  0
ARC
  5
8501
330
23B
100
AcDbEntity
  8
ALL_ASSEM_MEMBER
  6
Continuous
 62
     7
100
AcDbCircle
 10
44.12694514699223
 20
85.06519365947727
 30
0.0
 40
0.4
100
AcDbArc
 50
270.0
 51
180.0
  0
CIRCLE
  5
8502
330
23B
100
AcDbEntity
  8
ALL_ASSEM_MEMBER
  6
Continuous
 62
     7
100
AcDbCircle
 10
32.26327183779225
 20
96.92886696867727
 30
0.0
 40
0.325
  0
ARC
  5
8503
330
23B
100
AcDbEntity
  8
ALL_ASSEM_MEMBER
  6
Continuous
 62
     7
100
AcDbCircle
 10
32.26327183779225
 20
96.92886696867727
 30
0.0
 40
0.4
100
AcDbArc
 50
270.0
 51
180.0
  0
CIRCLE
  5
8504
330
23B
100
AcDbEntity
  8
ALL_ASSEM_MEMBER
  6
Continuous
 62
     7
100
AcDbCircle
 10
25.84269810949223
 20
112.4295031418773
 30
0.0
 40
0.325
  0
ARC
  5
8505
330
23B
100
AcDbEntity
  8
ALL_ASSEM_MEMBER
  6
Continuous
 62
     7
100
AcDbCircle
 10
25.84269810949223
 20
112.4295031418773
 30
0.0
 40
0.4
100
AcDbArc
 50
270.0
 51
180.0
  0
CIRCLE
  5
8548
330
23B
100
AcDbEntity
  8
02___PRT_ALL_AXES
  6
CENTER
 62
     2
100
AcDbCircle
 10
68.01646516679222
 20
120.8183869885273
 30
0.0
 40
43.0
  0
VIEWPORT
  5
723B
330
23C
100
AcDbEntity
 67
     1
  8
0
100
AcDbViewport
 10
297.0
 20
210.0
 30
0.0
 40
712.8
 41
504.0
 68
     2
 69
     1
 12
297.0
 22
210.0
 13
0.0
 23
0.0
 14
0.5
 24
0.5
 15
0.0
 25
0.0
 16
0.0
 26
0.0
 36
1.0
 17
0.0
 27
0.0
 37
0.0
 42
50.0
 43
0.0
 44
0.0
 45
504.0
 50
0.0
 51
0.0
 72
   100
 90
   557152
  1

281
     0
 71
     1
 74
     0
110
0.0
120
0.0
130
0.0
111
1.0
121
0.0
131
0.0
112
0.0
122
1.0
132
0.0
 79
     0
146
0.0
  0
VIEWPORT
  5
723C
330
23C
100
AcDbEntity
 67
     1
  8
0
100
AcDbViewport
 10
297.0
 20
210.0
 30
0.0
 40
475.2
 41
336.0
 68
     1
 69
     2
 12
215.2623457206654
 22
217.0446363710653
 13
0.0
 23
0.0
 14
0.5
 24
0.5
 15
0.0
 25
0.0
 16
0.0
 26
0.0
 36
1.0
 17
-138.4477949669416
 27
-32.96376070641463
 37
0.0
 42
50.0
 43
0.0
 44
0.0
 45
365.4268329739682
 50
0.0
 51
0.0
 72
   100
 90
   557168
  1

281
     0
 71
     1
 74
     0
110
0.0
120
0.0
130
0.0
111
1.0
121
0.0
131
0.0
112
0.0
122
1.0
132
0.0
 79
     0
146
0.0
  0
ENDSEC
  0
SECTION
  2
OBJECTS
  0
DICTIONARY
  5
C
330
0
100
AcDbDictionary
281
     1
  3
ACAD_DETAILVIEWSTYLE
350
7166
  3
ACAD_GROUP
350
D
  3
ACAD_IMAGE_VARS
350
7110
  3
ACAD_LAYOUT
350
1A
  3
ACAD_MLINESTYLE
350
17
  3
ACAD_PLOTSETTINGS
350
19
  3
ACAD_PLOTSTYLENAME
350
E
  3
ACAD_SCALELIST
350
70CD
  3
ACAD_SECTIONVIEWSTYLE
350
7167
  3
AcDbVariableDictionary
350
7161
  3
APPDATA
350
710E
  3
DWGPROPS
350
8549
  0
DICTIONARY
  5
7166
102
{ACAD_REACTORS
330
C
102
}
330
C
100
AcDbDictionary
281
     1
  0
DICTIONARY
  5
D
102
{ACAD_REACTORS
330
C
102
}
330
C
100
AcDbDictionary
281
     1
  0
RASTERVARIABLES
  5
7110
102
{ACAD_REACTORS
330
C
102
}
330
C
100
AcDbRasterVariables
 90
        0
 70
     1
 71
     1
 72
     1
  0
DICTIONARY
  5
1A
102
{ACAD_REACTORS
330
C
102
}
330
C
100
AcDbDictionary
281
     1
  3
Layout1
350
70CC
  3
Model
350
70CB
  0
DICTIONARY
  5
17
102
{ACAD_REACTORS
330
C
102
}
330
C
100
AcDbDictionary
281
     1
  3
Standard
350
18
  0
DICTIONARY
  5
19
102
{ACAD_REACTORS
330
C
102
}
330
C
100
AcDbDictionary
281
     1
  0
ACDBDICTIONARYWDFLT
  5
E
102
{ACAD_REACTORS
330
C
102
}
330
C
100
AcDbDictionary
281
     1
  3
Normal
350
F
100
AcDbDictionaryWithDefault
340
F
  0
DICTIONARY
  5
70CD
102
{ACAD_REACTORS
330
C
102
}
330
C
100
AcDbDictionary
281
     1
  3
A0
350
70CE
  3
A1
350
70CF
  3
A2
350
70D0
  3
A3
350
70D1
  3
A4
350
70D2
  3
A5
350
70D3
  3
A6
350
70D4
  3
A7
350
70D5
  3
A8
350
70D6
  3
A9
350
70D7
  3
B0
350
70D8
  3
B1
350
70D9
  3
B2
350
70DA
  3
B3
350
70DB
  3
B4
350
70DC
  3
B5
350
70DD
  3
B6
350
70DE
  3
B7
350
70DF
  3
B8
350
70E0
  3
B9
350
70E1
  3
C0
350
70E2
  3
C1
350
70E3
  3
C2
350
70E4
  3
C3
350
70E5
  3
C4
350
70E6
  3
C5
350
70E7
  3
C6
350
70E8
  3
C7
350
70E9
  3
C8
350
70EA
  3
C9
350
70EB
  3
D0
350
70EC
  3
D1
350
70ED
  3
D2
350
70EE
  0
DICTIONARY
  5
7167
102
{ACAD_REACTORS
330
C
102
}
330
C
100
AcDbDictionary
281
     1
  0
DICTIONARY
  5
7161
102
{ACAD_REACTORS
330
C
102
}
330
C
100
AcDbDictionary
281
     1
  0
DICTIONARY
  5
710E
102
{ACAD_REACTORS
330
C
102
}
330
C
100
AcDbDictionary
281
     1
  0
XRECORD
  5
8549
102
{ACAD_REACTORS
330
C
102
}
330
C
100
AcDbXrecord
280
     1
  1
DWGPROPS COOKIE
  2

  3

  4

  6

  7

  8
d610igzo
  9

300
=
301
=
302
=
303
=
304
=
305
=
306
=
307
=
308
=
309
=
 40
0.0
 41
0.0
 42
2457959.575777164
  1

 90
        0
  0
LAYOUT
  5
70CC
102
{ACAD_REACTORS
330
1A
102
}
330
1A
100
AcDbPlotSettings
  1

  2
none_device
  4
ISO_A2_(594.00_x_420.00_MM)
  6

 40
0.0
 41
0.0
 42
0.0
 43
0.0
 44
594.0
 45
420.0
 46
0.0
 47
0.0
 48
0.0
 49
0.0
140
0.0
141
0.0
142
1.0
143
1.0
 70
     0
 72
     1
 73
     0
 74
     0
  7

 75
     0
147
1.0
148
0.0
149
0.0
100
AcDbLayout
  1
Layout1
 70
     0
 71
     1
 10
0.0
 20
0.0
 11
594.0
 21
420.0
 12
0.0
 22
0.0
 32
0.0
 14
0.0
 24
0.0
 34
0.0
 15
0.0
 25
0.0
 35
0.0
146
0.0
 13
0.0
 23
0.0
 33
0.0
 16
1.0
 26
0.0
 36
0.0
 17
0.0
 27
1.0
 37
0.0
 76
     0
330
23C
331
723C
  0
LAYOUT
  5
70CB
102
{ACAD_REACTORS
330
1A
102
}
330
1A
100
AcDbPlotSettings
  1

  2
none_device
  4
ISO_A2_(594.00_x_420.00_MM)
  6

 40
0.0
 41
0.0
 42
0.0
 43
0.0
 44
594.0
 45
420.0
 46
0.0
 47
0.0
 48
0.0
 49
0.0
140
0.0
141
0.0
142
1.0
143
1.0
 70
  1024
 72
     1
 73
     0
 74
     0
  7

 75
     0
147
1.0
148
0.0
149
0.0
100
AcDbLayout
  1
Model
 70
     0
 71
     0
 10
-12.13536369018448
 20
50.87192941388859
 11
151.4073452595039
 21
301.0277177744316
 12
0.0
 22
0.0
 32
0.0
 14
40.8583485517
 24
37.91383589362994
 34
0.0
 15
389.6663428896309
 25
396.1754368485007
 35
0.0
146
0.0
 13
0.0
 23
0.0
 33
0.0
 16
1.0
 26
0.0
 36
0.0
 17
0.0
 27
1.0
 37
0.0
 76
     0
330
23B
331
1F4
  0
MLINESTYLE
  5
18
102
{ACAD_REACTORS
330
17
102
}
330
17
100
AcDbMlineStyle
  2
STANDARD
 70
     0
  3

 62
   256
 51
90.0
 52
90.0
 71
     2
 49
0.5
 62
   256
  6
BYLAYER
 49
-0.5
 62
   256
  6
BYLAYER
  0
ACDBPLACEHOLDER
  5
F
102
{ACAD_REACTORS
330
E
102
}
330
E
  0
SCALE
  5
70CE
102
{ACAD_REACTORS
330
70CD
102
}
330
70CD
100
AcDbScale
 70
     0
300
1:1
140
1.0
141
1.0
290
     1
  0
SCALE
  5
70CF
102
{ACAD_REACTORS
330
70CD
102
}
330
70CD
100
AcDbScale
 70
     0
300
1:2
140
1.0
141
2.0
290
     0
  0
SCALE
  5
70D0
102
{ACAD_REACTORS
330
70CD
102
}
330
70CD
100
AcDbScale
 70
     0
300
1:4
140
1.0
141
4.0
290
     0
  0
SCALE
  5
70D1
102
{ACAD_REACTORS
330
70CD
102
}
330
70CD
100
AcDbScale
 70
     0
300
1:5
140
1.0
141
5.0
290
     0
  0
SCALE
  5
70D2
102
{ACAD_REACTORS
330
70CD
102
}
330
70CD
100
AcDbScale
 70
     0
300
1:8
140
1.0
141
8.0
290
     0
  0
SCALE
  5
70D3
102
{ACAD_REACTORS
330
70CD
102
}
330
70CD
100
AcDbScale
 70
     0
300
1:10
140
1.0
141
10.0
290
     0
  0
SCALE
  5
70D4
102
{ACAD_REACTORS
330
70CD
102
}
330
70CD
100
AcDbScale
 70
     0
300
1:16
140
1.0
141
16.0
290
     0
  0
SCALE
  5
70D5
102
{ACAD_REACTORS
330
70CD
102
}
330
70CD
100
AcDbScale
 70
     0
300
1:20
140
1.0
141
20.0
290
     0
  0
SCALE
  5
70D6
102
{ACAD_REACTORS
330
70CD
102
}
330
70CD
100
AcDbScale
 70
     0
300
1:30
140
1.0
141
30.0
290
     0
  0
SCALE
  5
70D7
102
{ACAD_REACTORS
330
70CD
102
}
330
70CD
100
AcDbScale
 70
     0
300
1:40
140
1.0
141
40.0
290
     0
  0
SCALE
  5
70D8
102
{ACAD_REACTORS
330
70CD
102
}
330
70CD
100
AcDbScale
 70
     0
300
1:50
140
1.0
141
50.0
290
     0
  0
SCALE
  5
70D9
102
{ACAD_REACTORS
330
70CD
102
}
330
70CD
100
AcDbScale
 70
     0
300
1:100
140
1.0
141
100.0
290
     0
  0
SCALE
  5
70DA
102
{ACAD_REACTORS
330
70CD
102
}
330
70CD
100
AcDbScale
 70
     0
300
2:1
140
2.0
141
1.0
290
     0
  0
SCALE
  5
70DB
102
{ACAD_REACTORS
330
70CD
102
}
330
70CD
100
AcDbScale
 70
     0
300
4:1
140
4.0
141
1.0
290
     0
  0
SCALE
  5
70DC
102
{ACAD_REACTORS
330
70CD
102
}
330
70CD
100
AcDbScale
 70
     0
300
8:1
140
8.0
141
1.0
290
     0
  0
SCALE
  5
70DD
102
{ACAD_REACTORS
330
70CD
102
}
330
70CD
100
AcDbScale
 70
     0
300
10:1
140
10.0
141
1.0
290
     0
  0
SCALE
  5
70DE
102
{ACAD_REACTORS
330
70CD
102
}
330
70CD
100
AcDbScale
 70
     0
300
100:1
140
100.0
141
1.0
290
     0
  0
SCALE
  5
70DF
102
{ACAD_REACTORS
330
70CD
102
}
330
70CD
100
AcDbScale
 70
     0
300
1/128" = 1'-0"
140
0.0078125
141
12.0
290
     0
  0
SCALE
  5
70E0
102
{ACAD_REACTORS
330
70CD
102
}
330
70CD
100
AcDbScale
 70
     0
300
1/64" = 1'-0"
140
0.015625
141
12.0
290
     0
  0
SCALE
  5
70E1
102
{ACAD_REACTORS
330
70CD
102
}
330
70CD
100
AcDbScale
 70
     0
300
1/32" = 1'-0"
140
0.03125
141
12.0
290
     0
  0
SCALE
  5
70E2
102
{ACAD_REACTORS
330
70CD
102
}
330
70CD
100
AcDbScale
 70
     0
300
1/16" = 1'-0"
140
0.0625
141
12.0
290
     0
  0
SCALE
  5
70E3
102
{ACAD_REACTORS
330
70CD
102
}
330
70CD
100
AcDbScale
 70
     0
300
3/32" = 1'-0"
140
0.09375
141
12.0
290
     0
  0
SCALE
  5
70E4
102
{ACAD_REACTORS
330
70CD
102
}
330
70CD
100
AcDbScale
 70
     0
300
1/8" = 1'-0"
140
0.125
141
12.0
290
     0
  0
SCALE
  5
70E5
102
{ACAD_REACTORS
330
70CD
102
}
330
70CD
100
AcDbScale
 70
     0
300
3/16" = 1'-0"
140
0.1875
141
12.0
290
     0
  0
SCALE
  5
70E6
102
{ACAD_REACTORS
330
70CD
102
}
330
70CD
100
AcDbScale
 70
     0
300
1/4" = 1'-0"
140
0.25
141
12.0
290
     0
  0
SCALE
  5
70E7
102
{ACAD_REACTORS
330
70CD
102
}
330
70CD
100
AcDbScale
 70
     0
300
3/8" = 1'-0"
140
0.375
141
12.0
290
     0
  0
SCALE
  5
70E8
102
{ACAD_REACTORS
330
70CD
102
}
330
70CD
100
AcDbScale
 70
     0
300
1/2" = 1'-0"
140
0.5
141
12.0
290
     0
  0
SCALE
  5
70E9
102
{ACAD_REACTORS
330
70CD
102
}
330
70CD
100
AcDbScale
 70
     0
300
3/4" = 1'-0"
140
0.75
141
12.0
290
     0
  0
SCALE
  5
70EA
102
{ACAD_REACTORS
330
70CD
102
}
330
70CD
100
AcDbScale
 70
     0
300
1" = 1'-0"
140
1.0
141
12.0
290
     0
  0
SCALE
  5
70EB
102
{ACAD_REACTORS
330
70CD
102
}
330
70CD
100
AcDbScale
 70
     0
300
1-1/2" = 1'-0"
140
1.5
141
12.0
290
     0
  0
SCALE
  5
70EC
102
{ACAD_REACTORS
330
70CD
102
}
330
70CD
100
AcDbScale
 70
     0
300
3" = 1'-0"
140
3.0
141
12.0
290
     0
  0
SCALE
  5
70ED
102
{ACAD_REACTORS
330
70CD
102
}
330
70CD
100
AcDbScale
 70
     0
300
6" = 1'-0"
140
6.0
141
12.0
290
     0
  0
SCALE
  5
70EE
102
{ACAD_REACTORS
330
70CD
102
}
330
70CD
100
AcDbScale
 70
     0
300
1'-0" = 1'-0"
140
12.0
141
12.0
290
     0
  0
ENDSEC
  0
EOF
